Song name
# A B C D E F G H I J K L M N O P Q R S T U V W X Y Z

Link Wray - Rumble tab

Artist: Link Wray & His Men
Title: Rumble
Tuning: Standard

I tabbed this on an acoustic since I didn't have my electric with me.  Sometimes the D
better played as Dsus (xx0230) but I usually just play one or the other.  Also, play
with the B a bit...it sounds good the way I have it on an acoustic but havn't heard it 
electric yet...let me know...enjoy!

    A    B    D    E
e|--2----7----2----0---------------------|
B|--2----7----3----0---------------------|
G|--2----5----2----1---------------------|
D|--2----6----0----2---------------------|
A|--0----6---------2---------------------|
E|-------7---------0---------------------|

Riff 1 w/ Reverb
e|--2-2-0--2-2-0--2-2-0--2-2-0--2-2---7--3-0--------------------|
B|--3-3-0--3-3-0--3-3-2--3-3-0--3-3---7------3-0----------------|
G|--2-2-1--2-2-1--2-2-2--2-2-1--2-2---5----------2-0------------|
D|--0-0-2--0-0-2--0-0-2--0-0-2--0-0---6--------------2-0--------|
A|------2------2------0------2--------6------------------2-0----|
E|------0------0-------------0------7------------------------3-0|

Riff 2 w/ Reverb
e|--2-2-0--0--0--2-2-0--2-2---7--3-0--------------------|
B|--3-3-0--0--2--3-3-0--3-3---7------3-0----------------|
G|--2-2-1--2--2--2-2-1--2-2---5----------2-0------------|
D|--0-0-2--2--2--0-0-2--0-0---6--------------2-0--------|
A|------2--1--0------2--------6------------------2-0----|
E|------0--0---------0------7------------------------3-0|
           ©¸Repeat/scratch as fast as possible.

Riff 1 X 2 ¨C Riff 2 ¨C Riff 1 ¨C Outro (D D E) w/ Fade & Echo Effects
Tap to rate this tab
# A B C D E F G H I J K L M N O P Q R S T U V W X Y Z