Song name
# A B C D E F G H I J K L M N O P Q R S T U V W X Y Z

Link Wray - Caroline tab

-------------------------------------------------------------------------------
			     Caroline - Link Wray & The Wraymen
-------------------------------------------------------------------------------
Tabbed by: Iron Mike
Email:

Tuning: Standard

e|-------------------------------------------------------------------------------|
B|-------------------------------------------------------------------------------|
G|-------------------------------------------------------------------------------|
D|-------------------------2 / 6 ~ ----2 / 4-2--------4b(5)-4-2------------------|
A|-----------------2-4-2---------------------0---------------4-2 ~ --------------|I
E|--2b(3)-2b(3)-0----------------------------------------------------------------|

e|---------------------------------------------------------------------------------|
B|---------------------------------------------------------------------------------|
G|---------------------------------------------------------------------------------|
D|-------------------------2 / 6 ~ ----2-3-4 ~ -2-----4b(5)-4b(5)r4 ~ -------------|
A|-----------------2-4-2-------------------------4 ~ ------------------------------|I
E|--2b(3)-2b(3)-0------------------------------------------------------------------|

e|--------------------------------------------------------------------------------|
B|--------------------------------------------------------------------------------|
G|--------------------------------------------------------------------------------|
D|-------------------------2 / 6 ~ ----2 / 4-2--------4b(5)-4-2-------------------|
A|-----------------2-4-2---------------------0---------------4-2 ~ ---------------|I
E|--2b(3)-2b(3)-0-----------------------------------------------------------------|

e|--------------------------------------------------------------------------------|
B|--------------------------------------------------------------------------------|
G|--------------------------------------------------------------------------------|
D|-------------------------2 / 6 ~ -----------2---2 ~ --4b(5)r4-2~ ---------------|
A|-----------------2-4-2--------------2-3-4---4-----------------4-2---------------|I
E|--2b(3)-2b(3)-0-----------------------------------------------------4-2-0-------|


I b  bend to note in ( )
I r  return bend
| /  slide up
| ~  vibrato
Tap to rate this tab
 
# A B C D E F G H I J K L M N O P Q R S T U V W X Y Z