Song name
# A B C D E F G H I J K L M N O P Q R S T U V W X Y Z

Link Wray - Rawhide tab

heres a fun old link song in the key of A. standard tuning

  "RAW-HIDE" by Link Wray & the Wraymen

|----------------|----------|--------------|----------|
|----------------|----------|--------------|----------|
|----------------|-2~~~~~~~-|--------------|-2~~~~~~~-|
|------------0---|-2~~~~~~~-|----------0---|-2~~~~~~~-|
|---0--0--4----4-|-0~~~~~~~-|--0--0--4---4-|-0~~~~~~~-|
|----------------|----------|--------------|----------|

|----------------|----------|--------------|----------|
|----------------|-3~~~~~~~-|--------------|-3~~~~~~~-|
|------------0---|-2~~~~~~~-|----------0---|-2~~~~~~~-|
|---0--0--4----4-|-0~~~~~~~-|--0--0--4---4-|-0~~~~~~~-|
|----------------|----------|--------------|----------|
|----------------|----------|--------------|----------|

|----------------|----------|-------------|----------|
|----------------|----------|-------------|----------|
|----------------|-2~~~~~~~-|-------------|----------|
|------------0---|-2~~~~~~~-|-------------|-2~~~~~~~-|
|---0--0--4----4-|-0~~~~~~~-|---------0---|-2~~~~~~~-|
|----------------|----------|-0--0--4---4-|-0~~~~~~~-|

|------------------------------|-------|
|------------------------------|-------|
|------------------------------|-2~~~~-|
|-----------0--------------0---|-2~~~~-|
|---0--0--4---4---0-0-0--4---4-|-0~~~~-|
|------------------------------|-------| and after this you restart with the
main riff. solo is something like:
|---/5--5-5-/5--5-5-/5--5-5-5--8-8-8--5-|----5-5-5---5-5-5-|
|---/5--5-5-/5--5-5-/5--5-5-5--7-7-7--5-|----5-5-5---5-5-5-|
|---------------------------------------|-7b-------7b------|
|---------------------------------------|------------------|
|---------------------------------------|------------------|
|---------------------------------------|------------------|
|---------------------------------------|------------------|

|---12-12-12-12--12--12--10-10-10-10--10--10-|-/5--5-5-5-5-5-5-5-|
|---12-12-12-12--12--12--10-10-10-10--10--10-|-/5--5-5-5-5-5-5-5-|
|--------------------------------------------|-------------------|
|--------------------------------------------|-------------------|
|--------------------------------------------|-------------------|
|--------------------------------------------|-------------------|


|----------------|----------|--------------|----------|
|----------------|----------|--------------|----------|
|----------------|-2~~~~~~~-|--------------|-2~~~~~~~-|
|------------0---|-2~~~~~~~-|----------0---|-2~~~~~~~-|
|---0--0--4----4-|-0~~~~~~~-|--0--0--4---4-|-0~~~~~~~-|
|----------------|----------|--------------|----------|

and thats about all. simple song and really fun to solo over.

-Bert
Tap to rate this tab
# A B C D E F G H I J K L M N O P Q R S T U V W X Y Z