Song name
# A B C D E F G H I J K L M N O P Q R S T U V W X Y Z

Linkin Park - Morning After tab

Morning After
Linkin Park
By The Stephan

intro/verse

-------------------------------------------------------------------------|
-------------------------------------------------------------------------|
-------------------------------------------------------------------------|
--4-x444-2-x555-2-x555---------------------------------------------------|
--4-x444-2-x555-2-x555---------------------------------------------------|
--2-x222---x333---x333---------------------------------------------------|


chorus

-------------------------------------------------------------------------|
-------------------------------------------------------------------------|
-------------------------------------------------------------------------|
--9-x999-/5-x555-/4-x444-2-x555-2-x555-----------------------------------|
--9-x999-/5-x555-/4-x444-2-x555-2-x555-----------------------------------|
--7-x777-/3-x333-/2-x222---x333---x333-----------------------------------|


Bridge

-------------------------------------------------------------------------|
-------------------------------------------------------------------------|
------------------7-x777-------------------------------------------------|
--9-x999-/5-x555--7-x777--7-x777-----------------------------------------|
--9-x999-/5-x555--5-x555--7-x777-----------------------------------------|
--7-x777-/3-x333----------5-x555-----------------------------------------|
Tap to rate this tab
# A B C D E F G H I J K L M N O P Q R S T U V W X Y Z