Song name
# A B C D E F G H I J K L M N O P Q R S T U V W X Y Z

Linkin Park - Pushing Me Away Live Acoustic tab

Here is my take on the live version of this song.
I've changed a couple of ways to play it.
Hope you all enjoy it!
Please RATE!

(1)Intro:
--9---9---9-----9---9---9-----9---9---9-----9-----9-----9-----9--|
--7---7---7-----7---7---7-----7---7---7-----7-----7-----7-----7--|
--8-------8---------------------------------------------6-----8--|
----------------9-------9-------------------6-----8--------------|
------------------------------9-------9--------------------------|
-----------------------------------------------------------------|

(2)PreChorus 1: Played as tabbed
"The sacrifice..."
Part A:
-9----9---9-----9----9---9-----9----9---9-----9-----9----9-----9--|
-7--7---7---7---7--7---7---7---7--7---7---7---7--7--7--7-7--7--7--|
----------------6--------6----------------------------------------|
-9--------9--------------------6--------6----------------8-----9--|
----------------------------------------------8-----9-------------|
------------------------------------------------------------------|

Part B:
-9----9----9-----9----9----9-----9----9----9------9-----9-----9--|
-7--7---7----7---7--7---7----7---7--7---7-----7---7--7--7--7--7--|
-----------------6---------6-------------------------------------|
-9---------9---------------------6---------6---------------------|
--------------------------------------------------8-----9-----8--|
-----------------------------------------------------------------|

(3)Chorus:
Played as power chords, repeat 2x's

"Why I never..."
----------------------------|
-----0----------------------|
-8---4---3---------------8--|
-8---4---4---6---9-------8--|
-6---2---4---6---9---4---6--|
---------2---4---7----------|


(4)PreChorus 2:
Played as power chords for variety.

--------------------------|
--------------------------|
--4---6----------------3--|
--4---6---6---3---5----3--|
--2---4---6---3---5----1--|
----------4---1---3-------|


(1)
I've lied to you
The same way that I always do
This is the last smile
That I'll fake for the sake of being with you

(2)
The sacrifice of hiding in a lie
The sacrifice is never knowing

(3)
Why I never walked away
Why I played myself this way
Now I see you're testing me
Pushes me away
[x2]

(3)
I've tried like you
To do everything you wanted too
This is the last time
I'll take the blame for the sake of being with you


(4)
The sacrifice of hiding in a lie
The sacrifice is never knowing


(Repeat Chorus)


(4)
The sacrifice of hiding in a lie
The sacrifice is never knowing


(Repeat Chorus)


(1)
Pushes me away…
Tap to rate this tab
# A B C D E F G H I J K L M N O P Q R S T U V W X Y Z