Song name
# A B C D E F G H I J K L M N O P Q R S T U V W X Y Z

Linkin Park - Leave Out All The Rest tab

Linkin Park
Leave Out All The Rest Acoustic Guitar Tab-Intro
()=Sustain
_________________________________________________________________
||----------------0---0---0---0---0---0---0---0------------------|
||1---1---1---1---------------------1---1---1---1-3---3---3---3--|
||--2---2---2---2---2---2---2---2-------------------2---2---2---2|
||---------------------------------------------------------------|
||---------------------------------------------------------------|
||---------------------------------------------------------------|
=================================================================|

_________________________________________________________________
||----------------0---0---0---0---0---0---0---0------------------|
||1---1---1---1---------------------1---1---1---1-3---3---3---3--|
||--2---2---2---2---2---2---2---2-------------------2---2---2---2|
||---------------------------------------------------------------|-w/bass
||-------------------------------(3)-------------(0)-------------|
|(0)------------(3)----------------------------------------------|
=================================================================|

This is my VERY first tab, and I thought it would be fun to try out tabbing.
Don't worry, this is the right key, I made sure of it.
Enjoy!!!

jonbond92
Tap to rate this tab
# A B C D E F G H I J K L M N O P Q R S T U V W X Y Z