Song name
# A B C D E F G H I J K L M N O P Q R S T U V W X Y Z

Linkin Park - From The Inside Acoustic tab

Song: From The Inside (acoustic)- Linkin Park
Email: sk8in4l1fe223@gmail.com
im 99% this is correct but if you find any flaws in it, email me and ill be glad to fix it


Intro/Verse/Chorus:
e|-----------------------------------------------------------------------------------|
B|------------------6----------------------------------------------------------------|
G|--------------7------7-----------------------2-------------------------------------|
D|----------7---------------7-------------3---------3--------------------------------|
A|------5-----------------------------3------------------3---------------------------|
E|---------------------------------1-------------------------------------------------|

e|-----------------------------------------------------------------------------------|
B|-----------------------------------------------------------------------------------|
G|-----------------7-----------------------------------------------------------------|
D|------------8--------8-------------------5------------7----------------------------|
A|--------8----------------8----------5-------------7--------------------------------|
E|----6---------------------------3-------------5------------------------------------|

Bridge:
e|-----------------------------------------------------------------------------|
B|----------------6---------------------6--------------------------------------|
G|------------7------7--------------7------7-----------------------------------|
D|---------7-------------7------7--------------7-------------------------------|
A|-----5---------------------5-------------------------------------------------|
E|-----------------------------------------------------------------------------|


e|-----------------------------------------------------------------------------|
B|-----------------------------------------------------------------------------|
G|-----------------7-----------------------------------------------------------|
D|-------------8-------8---------------5----------7----------------------------|
A|---------8---------------8-------5----------7--------------------------------|
E|------6-----------------------3----------5-----------------------------------|


The F (the chord that is played first fret for those of you who donít know)
can be played in 3 ways, one way is how I have it above

e|-------------------------------------------------------------------------------|
B|---------------------1---------------------------------------------------------|
G|-----------------2------2------------------------------------------------------|
D|-------------3---------------3-------------------------------------------------|
A|---------3---------------------------------------------------------------------|
E|-------------------------------------------------------------------------------|

Is another way or you could do

e|-----------------------------------------------------------------------------|
B|-------------------------10--------------------------------------------------|
G|-------------------10--------10----------------------------------------------|
D|-------------10--------------------10----------------------------------------|
A|---------8-------------------------------------------------------------------|
E|-----------------------------------------------------------------------------|

Personally I feel that last way sounds best, (atleast on my guitar) its also the 
hardest way to play it
Tap to rate this tab
# A B C D E F G H I J K L M N O P Q R S T U V W X Y Z