Linkin Park - Blackout tab

-------------------------------------------------------------------------------
			     BLACKOUT - Linkin Park
-------------------------------------------------------------------------------
Tabbed by:mikkem719
Email:hunter719@yahoo.com

From A Thousand Suns

I really like this song and there arent really any tabs for it yet so here it is :)

Tuning: Drop D (DADGBE)
Intro:
e|---------------------------------------------------------------------------|
B|---------------------------------------------------------------------------|
G|---------------------------------------------------------------------------|
D|---------------------------------------------------------------------------|
A|---------------------------------------------------------------------------|
D|-0~--------2~------------------6~---------4~-------------------------------|
(these are the bass notes played in the intro) Repeat as many times as necessary

e|---------------------------------------------------------------------------|
B|-------9--10--12-----9--7~--------------9--10--12------7--5~---------------|
G|----9-------------9------------------9--------------9----------------------|
D|---------------------------------------------------------------------------|
A|---------------------------------------------------------------------------|
D|---------------------------------------------------------------------------|
keyboard part to the intro, its used throughout the song
Verse & Chorus:
repeat the bass and keyboard riffs

Bridge
e|---------------------------------------------------------------------------|
B|---------------------------------------------------------------------------|
G|---------------------------------------------------------------------------|
D|---9-----------------------5------------------------2----------------------|
A|---9-----------------------5------------------------2----------------------|
D|---9-----------------------5------------------------2----------------------|

Outro: you fan figure out how many times to play each
e|---------------------------------------------------------------------------|
B|---------------------------------------------------------------------------|
G|--16--14-----------------14--13--------------------------------------------|
D|----------14---------------------14----------------------------------------|
A|---------------------------------------------------------------------------|
D|---------------------------------------------------------------------------|

then just repeat the keyboard part again, im not 100 % on the outro or the bass notes, 
everything else is right for sure, email me any corrections you see because i know there 
some, ENJOY!

************************************

| /   slide up
| \   slide down
| h   hammer-on
| p   pull-off
| ~   vibrato
| +   harmonic
| x   Mute note
| b   Bend
| pb  Pre-bend
| br  Bend release
| pbr Pre-bend release
| brb Bend release bend

************************************
Tap to rate this tab
 
# A B C D E F G H I J K L M N O P Q R S T U V W X Y Z