Song name
# A B C D E F G H I J K L M N O P Q R S T U V W X Y Z

Linkin Park - Pepper tab

PEPPER (Meteora Demo) - Linkin Park


Tabbed by :Andreyx94
E-mail: andreyx@hotmail.it


Tuning:
Db, Ab, Db, Gb, Bb, Eb


Intro1:

Eb|---------8------------------7------------|
Bd|----10-------10---10---10-------10---10--|
Gb|--9----9--------9----9----9--------9-----|
Db|-----------------------------------------|
Ab|-----------------------------------------|
Db|-----------------------------------------|

Intro2

Eb|---------8------------------9------------|
Bd|----10-------10---10---10-------10---10--|
Gd|--9----9--------9----9----9--------9-----|
Db|-----------------------------------------|
Ab|-----------------------------------------|
Db|-----------------------------------------|

Chorus:

Eb|----------------------------------------------|
Bd|----------------------------------------------|
Gb|----------------------------------------------|
Db|--7--7-7----10--10-10----5--5-5----5--5-5-----|
Ab|--7--7-7----10--10-10----5--5-5----3--3-3-----|
Db|--7--7-7----10--10-10----5--5-5----3--3-3-----|

Bridge:

Eb|--------------------------------------------------|
Bd|--------------------------------------------------|
Gb|--------------------------------------------------|
Db|--0---------5------------7---------9--------------|
Ab|--0---------3------------7---------9--------------|
Db|--0---------3------------7---------9--------------|


Let's play:

Intro1 x 8

Intro2 x 1

Intro1 x 1

Intro2 x 1

Intro1 x 1

Chorus x 2

Intro1 x 4

Intro2 x 1

Intro1 x 1

Intro2 x 1

Intro1 x 1

Chorus x 2

Bridge x 2

Chorus x 2

Rate and enjoy ^^
Tap to rate this tab
# A B C D E F G H I J K L M N O P Q R S T U V W X Y Z