Guitaretab - guitar tabs
Song name
# A B C D E F G H I J K L M N O P Q R S T U V W X Y Z
Home / L / Liquido / Tired tab

Liquido - Tired tab

---------------------------------------------------------------------------
			     LIQUIDO - Tired
---------------------------------------------------------------------------
Tabbed by:Audio84ave
Email:y.kumar@web.de


Tuning: flat (Eb,Ab,Db,Gb,Bb,eb) 
2 Guitars



VERSE: (00:00) (just piano)

    D			  hm
I'm tired of sleeping my life away
    D			hm  
i'm tired of wasting my time
     em 			 G
just scared of this feeling of hurt
     D     A
it's awaking

(the same as above)
i'm tired of wishing my fears away
i'm tired of touching your skin
awaiting the tip of the tip
it's amazing



CHORUS: (01:05)

Em		    A
"take your bow and whistle"
  D			hm
i heard my father sing
     Em		     A		      D			hm
"the answer lies in front of us, so let your work begin"
F#		F#
it shivers, it quivers...



-VERSE: (01:28)
i'm tired of thinking 'bout yesterday
i'm tired of reading the news
"the wavelength that weakens the weak. Must be dying"

Guitar 2 (02:00) (clean)
e|----------------------------------|-------------------------------------|
B|----------------------------------|-------------------------------------|
G|----------------------------------|-------------------------------------|
D|-7-7-7-7-7-7-7-7/9-9-9------------|7-7-7-7-7-7-7-7/9-9-9----------------|
A|-----------------------10-10-9-9-7|----------------------9-9-9-9-9------|
E|----------------------------------|-------------------------------------|
i'm tired of staying awake all night i'm tired of that struggle within

[ Tab from: http://www.guitaretab.com/l/liquido/126538.html ]
e|---------------------------------|--------------------------------------|
B|---------------------------------|--------------------------------------|
G|---------------------------------|--------------------------------------|
D|-9-9-7-7-9-7------5-5-5-5/9-7-5-4|7-7-7-7-7-7-7-7-7-7-7-7-7-7-7-7-------|
A|-------------10-9----------------|--------------------------------------|
E|---------------------------------|--------------------------------------|
Completely beating me up	     - it's amazing



-CHORUS: (02:33)
I take my bow and whistle now
angered by that lies
the answer lies in front of us
tearing up the ties - it shivers, it quivers...

-Solo (on Chorus)



MIDDLE-PART A: (03:20)	(just piano)	(x2)
hm 		   em 
my lover discover slow motion devotion
c# 			f#m
imagine that ill wind relation sensation



MIDDLE-PART B: (03:49)
D 			F# 
Whenyougottathrowbackslipback
			    hm
andyoushiverfortheonetrackothertrack
			G
andmyloverforthemotioncovering... throw it back...



MIDDLE-PART C: (04:03)						(x4)

Guitar 1: (distorted)
e|------------------------------------------------------------------------|
B|------------------------------------------------------------------------|
G|--7------------------------------------4--------------------------------|
D|--7-----------------4------------------4-----------------5--------------|
A|--5-----------------4------------------2-----------------5--------------|
E|--------------------2------------------------------------3--------------|

Guitar 2: (distorted)
e|------------------------------------------------------------------------|
B|--11-11-1111-11-11--111111/1313-/1515-/16--16--16-16-16--16-16\1515\1313|
G|--x--x--x-x--x--x---x-x--x-x-x---x-x---x----x---x-x--x----x-x--x-x---x-x|
D|--9--9--99--9--9---9-9--9/1111/13-13-/14--14--14-14-14--14-14\1313\1111|
A|------------------------------------------------------------------------|
E|------------------------------------------------------------------------|

End on F#

VERSE: (05:10)
i'm tired of sleeping my life away
i'm tired of wasting my time
just scared of this feeling of hurt
it's awaking

i'm tired of wishing my fears away
i'm tired of touching your skin
awaiting a tip of the tip - it's amazing



| /  slide up
| \  slide down
| h  hammer-on
| p  pull-off
| ~  vibrato
| r  let ring
| +  harmonic
| pm palm-muted
| x  Mute note
--------------------------------------------------------------------------|
Related for Tired tab