Song name
# A B C D E F G H I J K L M N O P Q R S T U V W X Y Z

Liquido - Ordinary Life tab

-----------------------------------------------------------------------------
			    ordinary life - liquido
-----------------------------------------------------------------------------


Tabbed by:mat from beniniha
Email:mat_beniniha@msn.com

> = slide
/ =bend

intro

E||-------------------------------------------------------------------------|
B||-------6-6-6--6-----------6-6-6--6------6----------6-7-7-7-7-9 7---------|
G||-----8----------8-6----8-----------8-6----8-8-8--8-----------------------|
D||-------------------------------------------------------------------------|
A||-------------------------------------------------------------------------|
E||-------------------------------------------------------------------------|


verse

E||----------------|------------------|-----------------|
B||----------------|------------------|-----------------|
G||-------6--------|------6-----------|----6------------|
D||----8--6--6--4--|---8--6---6--4----|----6--6--6--4---|
A||----8--4--6--4--|---8--4---6--4----|----4--6--6--4---|
E||----6-----4--2--|---6------4--2----|-------8--4--2---|


bridge

E||------------------------5-8>5-------|
B||---6---6----6----5----5-------------|
G||----6---6----6----5-----------------|
D||-----8-----8--8----9----------------|
A||------------------------------------|
E||------------------------------------|


E||---------------------------------|
B||---6---6----6----5----5----------|
G||----6---6----6----5--------------|
D||-----8-----8--8----9-------------|
A||--------------------------4/-----|
E||---------------------------------|
Tap to rate this tab
 
# A B C D E F G H I J K L M N O P Q R S T U V W X Y Z