Song name
# A B C D E F G H I J K L M N O P Q R S T U V W X Y Z

Lisa Miskovsky - Still Alive tab

e|------11---11---9--6---6----4----9---9-9---2-1---1-------------------------|
B|-----------------------------------------------------4---------------------|
G|---------------------------------------------------------------------------|
D|---------------------------------------------------------------------------|
A|---------------------------------------------------------------------------|
E|---------------------------------------------------------------------------|

e|---14-13----14-13----14---14-13----14-13----14----16-14-13-14-13---------|
B|---------14-------14------------14-------14----------------------14------|
G|--------------------------------------------------------------------11-11|
D|-------------------------------------------------------------------------|
A|-------------------------------------------------------------------------|
E|-------------------------------------------------------------------------|

thats what i got from it so far...
Tap to rate this tab
 
# A B C D E F G H I J K L M N O P Q R S T U V W X Y Z