Song name
# A B C D E F G H I J K L M N O P Q R S T U V W X Y Z

Lisa Miskovsky - Driving One Of Your Cars tab

a simple tab of the intro. Enjoy ^^

  Em               C
e|3-3-3-2-2-2-2-2-|3-3-3-2-2-2-2-2-|
b|0-0-0-0-0-0-0-0-|1-1-1-1-1-1-1-1-|
g|0-0-0-0-0-0-0-0-|0-0-0-0-0-0-0-0-|
d|----------------|----------------|
a|----------------|----------------|
E|----------------|----------------|

  G               D
e|3-3-3-2-2-2-2-2-|3-3-3-2-2-2-2-2-| * 2
b|3-3-3-3-3-3-3-3-|3-3-3-3-3-3-3-3-|
g|0-0-0-0-0-0-0-0-|2-2-2-2-2-2-2-2-|
d|----------------|----------------|
a|----------------|----------------|
E|----------------|----------------|

tab by Bjuv0
Tap to rate this tab
# A B C D E F G H I J K L M N O P Q R S T U V W X Y Z