Song name
# A B C D E F G H I J K L M N O P Q R S T U V W X Y Z

Little Birdy - Baby Blue tab

Standard tuning
This is the main riff...
-|----------------------5-------------------|
-|8/10----8h10p8-6--------5----8---12--12---|
-|------------------------------------------|
-|------------------------------------------|
-|------------------------------------------|
-|------------------------------------------|

Chords
   Am          F           C           E
-|-0-----0-----1-----1-----0-----0-----0-----0-----|
-|-1-----1-----1-----1-----1-----1-----0-----0-----|
-|-2-----2-----2-----2-----0-----0-----1-----1-----|
-|-2-----2-----3-----3-----2-----2-----2-----2-----|
-|-0-----0-----3-----3-----3-----3-----2-----2-----|
-|-0-----0-----1-----1-----0-----0-----0-----0-----|

Am              F
Am I too young for you, babe
     C              E
Am I too stupid to see
Am                 F
When I get home to see you 
   C              E
I rush after your charms

Its naughty, to be here
Its naughty... etc.

************************************
| /   slide up
| \   slide down
| h   hammer-on
| p   pull-off
************************************
Tabbed by Callum Foot
Tap to rate this tab
 
# A B C D E F G H I J K L M N O P Q R S T U V W X Y Z