Song name
# A B C D E F G H I J K L M N O P Q R S T U V W X Y Z

Little Comets - Lost Time tab

The song can be found online here http://www.myspace.com/isupportlittlecomets

It is quite hard to find.

Official Band Website - http://littlecomets.com/

It is quite hard to find.

I thought I'd tab a few Little Comets songs, as there are no tabs atm.

Contact me at bellytops95@hotmail.co.uk

Riff

E -----------------------------------|
A -----------------------------------|
D ---7-9-7-9----7-9-9----------------|
G ----------------------7-9-7--------|
B -----------------------------------|
E -----------------------------------|

E -----------------------------------|
A -----------------------------------|
D ---7-9-7-9----7-9-9----------------|
G ----------------------7-9-7--------|
B -----------------------------------|
E -----------------------------------|

E -----------------------------------|
A -----------------------------------|
D -14-14-12-14----12-14-14-----------|
G -------------------------14-16-16--|
B -----------------------------------|
E -----------------------------------|

E -----------------------------------|
A -----------------------------------|
D -12-14-12-14----12-14-14-----------|
G -------------------------14-16-14--|
B -----------------------------------|
E -----------------------------------|

The chords for the verse and the chorus are the same

They play G for 4 bars, then they switch to C for 4 bars, then repeat the process again, 
the verse.

Then in the chorus, G is played for 2 bars, then they switch to C for 2 bars. and repeat.

This is only rough, you'll have to listen to the song to get it perfect.

*After the first chorus, they play the first 2 parts of the riff before going back the verse*
Tap to rate this tab
 
# A B C D E F G H I J K L M N O P Q R S T U V W X Y Z