Song name
# A B C D E F G H I J K L M N O P Q R S T U V W X Y Z

Little Feat - Willin chords

Highlighted       Show chord diagrams
Song Title: Willin'
Artist: Little Feat

Tuning: Open G (DGDGBD)

Intro:
    G   D/F#  Em  D C   G    C  D  C  G
D-------------------------------------0-----|
B---12---10---8---7-5---0----1--3--1--3-----|
G---0----0----0---0-0---0----0--0--0--0-----|
D---0----0----0---0-0---0----2--4--2--0-----|
G---12---11---9---7-5---0----0--0--0--0-----|
D-------------------------------------------|

Verse:
    G   D/F#  Em  D C   G    C  D  C  G
D-------------------------------------0-----|
B---12---10---8---7-5---0----1--3--1--3-----|
G---0----0----0---0-0---0----0--0--0--0-----| x2
D---0----0----0---0-0---0----2--4--2--0-----|
G---12---11---9---7-5---0----0--0--0--0-----|
D-------------------------------------------|


G
I've been worked by the rain
D/F#
Driven by the snow
Em              D C
Drunk and dirty, don't you know
        G      C  D  C   G
But I'm still,            willin, (etc.)

Chorus:
    G    C    D    G   G Am Bm C     D
D---0----5----7----0----0------5-----7-------|
B---0----5----7----0----0-1-3--5-----7-------|
G---0----5----7----0----0-2-4--5-----7-------|
D---0----5----7----0----0-0-0--5-----7-------|
G---0----5----7----0----0-2-4--5-----7-------|
D--------------------------------------------|


    C   Bm Am G      D     G   C D C G
D---5---------0-----(7)----0---------0-------|
B---5---3--1--0------7-----0---1-3-1-0-------|
G---5---4--2--0------7-----0---0-0-0-0-------|
D---5---0--0--0------7-----0---2-4-2-0-------|
G---5---4--2--0------7-----0---0-0-0-0-------|
D--------------------------------------------|


G                C         D                           G
And I been from Tucson to Tucumcari, Tehachapi to Tonapa

G                     Am         Bm        C
Driven every kind of rig that's ever been made
  (C)                                      D
Driven the back roads so I wouldn't get weighed

(No chord)
And if you give me


C     Bm     Am   G
Weed, whites and wine

G                 D
And you show me a sign
D       G       C D C         G
I'll be willin'         to be movin'

I'm sure it's open G. I saw Little Feat live, and they used Open G.
Also, there are videos on youtube in which George clearly uses Open G.
If you want a version transcribed for standard, just email me at Atwbthe3rd@yahoo.com.

Also, I simplified the chord names to make it easier on me,
hope you don't mind.

Peace,
Adam
Tap to rate this tab
 
# A B C D E F G H I J K L M N O P Q R S T U V W X Y Z