Guitaretab - guitar tabs
Song name
# A B C D E F G H I J K L M N O P Q R S T U V W X Y Z
Home / L / Live / Overcome tab

Live - Overcome tab

----------------------------------------------------------------------------
			     OVERCOME - +Live+
----------------------------------------------------------------------------
Tabbed by: Asprology21
Email: benremmert@hotmail.com

Tuning: Standard (surprisingly)

Very easy, but you will have to listen to this song to get strumming.

INTRO/Chorus
   Bm                   A         E
e|------2-2-2-----2-------0-0-------0-----0---|
B|----3-3-3-3---3-3-3-0-2-2-2-x-x---0-0-0-0---|
G|-4-44-4-4-4-4-4-4-4-0-2-2-2-x-x-1-1-1-1-1---|
D|-4-44-4-----4-4-4-4-0-2-2-2-x-x-2-2-2-2-2---|
A|-2-22-2-----2-2-2-----0-0-0-----2-2-2-2-2---|
E|--------------------------------0-0-0-0-0---|
[ Tab from: http://www.guitaretab.com/l/live/27302.html ]
VERSE
   F#m               E
e|--------2-2-----2----0-0-0-0----------------|
B|----2---2-2-----2----0-0-0-0----------------|
G|----2-x-2-2-x---2--1-1-1-1-1----------------|
D|--4-4-x-4-4-x-4-4--2-2-2-2-2----------------|
A|--4-4-x-4-4-x-4-4--2-2-2-2-2----------------|
E|--2-2---2-2---2-2--0-0-0-0-0----------------|

BRIDGE
   F#m            D        A             E
e|---2-2-2--------2-2-3-2----0-0-0---------0-0-0-0-------|
B|---2-2-2--------3-3-3-3--2-2-2-2-------0-0-0-0-0-------|
G|-2-2-2-2--------2-2-2-2--2-2-2-2-------1-1-1-1-1-------|
D|-4-4-4-4--------0-0-0-0--2-2-2-2-------2-2-2-2-2-------|
A|-4-4-4-4-----------------0-0-0-0-------2-2-2-2-2-------|
E|-2-2-2-2-------------------------------0-0-0-0-0-------|
     So drive me out…      open field…   ignition off…

INTRO
VERSE
CHORUS
VERSE
CHORUS
BRIDE
CHORUS X a few

Great song, great band- what more can I say?

| /  slide up
| \  slide down
| h  hammer-on
| p  pull-off
| ~  vibrato
| +  harmonic
| x  Mute note
============================================================================

Related for Overcome tab