Song name
# A B C D E F G H I J K L M N O P Q R S T U V W X Y Z

Living End - 10: 15 Saturday Night tab

- The Living End -
                   10:15 Saturday Night 
          Tabbed by, Mick Fryar,manumick20@yahoo.com


Intro:                     
e------------12----------|
b------12-12---12-9--9---|
g-9--9-------------------|
d------------------------|
a------------------------|
e------------------------|

  *
e---------------------------------------------------|
b---------------------------------------------------|
g-12(x10)--11(x10)--9(x9)-11-12(x10)--11(x10)--9(x7)|
d---------------------------------------------------|
a---------------------------------------------------|
e---------------------------------------------------|
           
  B       A  Am         A
e---------------0-0--------|
b--------------1---1-------|
g-4-4-4-4-2---2-----2---2--|
d-4-4-4-4-2--2-------2--2--|(x4)
a-2-2-2-2-0-0---------0-0--|
e--------------------------|

Verse: 

   G            F#                   E
e------------------------------------0-|
b------------------------------------0-|
g------------------------------------1-|
d-6-6-6-6-6-6-6-4-4-4-4-4-4-4-4------2-|
a-6-6-6-6-6-6-6-4-4-4-4-4-4-4-4-(x4)-2-|
e-3-3-3-3-3-3-3-2-2-2-2-2-2-2-2------0-|

Repeat Intro

Verse

Intro

Solo: 

e--------------------------------------|
b-9^-10--9^-7--9^-10--9p-7-------------|
g-9^-10--9^-7--9^-10--9p-7---7^--9-----|
d--------------------------9-----9-----|(x3)
a--------------------------------------|
e--------------------------------------|

e-------------7--7^---:-3-3-3-3-3-2-2-2-2-2-|
b-6-7-7-7-7-7---------:-3-3-3-3---2-2-2-2---|
g---------------------:---------------------|
d---------------------:---------------------|
a---------------------:---------------------|
e---------------------:---------------------|
 Repeat that last section as much as needed.


Verse

Intro (from where I put the *)

Verse

Intro

Outro:
e-------------------------------------|
b-------------------------------------|
g-------------------------------------|
d-2-4-5-4-5-7-7-5-4-5-7-9-9-4-5-4-2-0-|(x2)
a-------------------------------------|
e-------------------------------------|

Then finish the song by,
e------12----12------------12----12---------12--|
b---12----12----12------12----12----12------12--|
g-9----------------9-------------------9----9---|
d-----------------------------------------------|
a-----------------------------------------------|
e-----------------------------------------------|
Tap to rate this tab
 
# A B C D E F G H I J K L M N O P Q R S T U V W X Y Z