Song name
# A B C D E F G H I J K L M N O P Q R S T U V W X Y Z

Lmfao - Shots tab

Artist: Lmfao
Song: Shots
Tabbed By: Paul_soberanes@yahoo.com


Intro


   e---------------------------------------------------|
   B---------------------------------------------------|
   G---------------------------------------------------|
   D---------------------------------------------------|
   A---5-8-7-5--5-5-5-8-7-7-5---5-8-7-5--5-5-5-8-7-7-5-|
   E----------5------------------------5---------------|

   B---------------------------------------------------10-|
   G-7--10-9--7--7-7-7--10-9-9--7---7--10--9-7------8--10-|
   D------------------------------------------------8-----|
   A-5--8--7--5--5-5-5--8--7-7--5---5--8---7-5------------|
   E-----------5-------------------------------5----------|
Tap to rate this tab
# A B C D E F G H I J K L M N O P Q R S T U V W X Y Z