Song name
# A B C D E F G H I J K L M N O P Q R S T U V W X Y Z

Lmfao - Sexy And I Know It tab

This is pretty much the whole song learned it by ear but sounds good :D
This was made by Avery Stanken 

First part                     Play how ever many times you need to play it
x------------------------------------------------x
x------------------------------------------------x
x------------------------------------------------x
x------------------------------------------------x
x-------------3--------------------3-------------x
x-3------6--3---------3-------6--3---------------x

Second part

x------------------------------------------------x
x------------------------------------------------x
x------------------------------------------------x
x----------------------------------5-------------x
x---------------3--------------------------------x
x--3------6--3------3-------6--3-----------------x
Tap to rate this tab
 
# A B C D E F G H I J K L M N O P Q R S T U V W X Y Z