Song name
# A B C D E F G H I J K L M N O P Q R S T U V W X Y Z

Lmfao - Sexy And I Know It chords

-----------------------------------------------------------------------------
			     SEXY AND I KNOW IT - LMFAO
-----------------------------------------------------------------------------

Artist : LMFAO
Song : I'm Sexy and I Know it
Album : Sorry for Party Rocking
Year : 2011

Tabbed by : JBW
Tuning : Standard


Ok so this song has a pretty specific melody on the synth. But I found some chords 
that can work over the parts. It centers around the Gm for most of the song. 
You'll have to play with the chords and figure out a good rhythm 
or strumming pattern that works for you :)


Chords Used :  F    Gm    Bb    C    (2nd Half is the same chord played differently)

e|-------1------3-------6-------3-----||----8-----10----10-----8------------|
B|-------1------3-------6-------5-----||----10----11----11-----8------------|
G|-------2------3-------7-------5-----||----10----12----10-----9------------|
D|-------3------5-------8-------5-----||----10----12----12-----10-----------|
A|-------3------5-------8-------3-----||----8-----10----13-----10-----------|
E|-------1------3-------6-------------||-----------------------8------------|

This is the basic melody however it does have variations throughout the song

e|--------------------------------------------------------------------------|
B|--------------------------------------------------------------------------|
G|--------------------------------------------------------------------------|
D|--------------------------5-----------------------------------------------|
A|---------------3----------------------------------------------------------|
E|------3---3h6-------3-3-3--------------------------------------------------


The Gm is the starting chord and tonal center of the song 
The Bb or the C could be walking chords or possibly notes leading away from and back to the Gm
The F is played sometimes at the end of the progression leading back to the Gm

Here are the lyrics
have fun and enjoy :)


"Sexy and I know it"

When I walk on by, girls be looking like damn he fly
I pay to the beat, walking on the street in my new lafreak, yeah
This is how I roll, animal print, pants out control,
It's real fool with the big afro
They like bruce lee rock at the club

Girl look at that body (x3)
I work out
Girl look at that body (x3)
I work out

When I walk in the spot, this is what I see
Everybody stops and they staring at me
I got passion in my pants and I ain't afraid to show it

I'm sexy and I know it (x2)

When I'm at the moss, purity just can't fight them off
When I'm at the beach, I'm in a speedo trying to tan my cheeks
This is how I roll, come on ladies it's time to go
We headed to the bar, baby don't be nervous
No shoes, no shirt, and I still get service

Girl look at that body (x3)
I work out
Girl look at that body (x3)
I work out

When I walk in the spot, this is what I see
Everybody stops and they staring at me
I got passion in my pants and I ain't afraid to show it

I'm sexy and I know it (x2)

Wiggle, wiggle, wiggle, wiggle, wiggle yeah (x3)

I'M SEXY AND I KNOW IT...

Girl look at that body (x3)
I work out
Girl look at that body (x3)
I work out
Tap to rate this tab
# A B C D E F G H I J K L M N O P Q R S T U V W X Y Z