Lmfao - Party Rock Anthem tab

-----THIS IS THE VERSION OF HOK AND VICTOR KIM-----

Pretty easy, just some chords with a little extra
First one with this version but i think it's a good one too :)
Did this because you guys asked me to do a tab so i spended my time on it so be thankfull :)

http://www.youtube.com/watch?v=Oe78pmIKjmU <<--- The Video of VictorKim And Hok

Intro:
|------------------------------------------------| 
|----------9---9------8------6-------4-----------|
|--------8---8-8------8------6-------5-----------|
|-----10-----------------------------------------|  
|---8---------------6--------4-----4-------------|
|------------------------------------------------|

During singing and the end of intro 2nd time he sometimes leaves the 
x-4-x-5-4-x.

He just improvises that and so do you.

Verse and Chorus:
      Fm     D#     C#
e|----8------6------4-----------------|
b|----9------8------6-----------------|
g|----10-----8------6-----------------|
d|----10-----8------6-----------------|
a|----8------6------4-----------------|
e|------------------------------------|

At the and he just does:
|----------- 8----------| 
|----------9---9--------|
|--------8-------8------|
|-----10-----------10---|  
|---8-------------------|
|-----------------------|
And screws up a bit :P

And Then he just does the Fm and slides down....

THE END
Tap to rate this tab
 
# A B C D E F G H I J K L M N O P Q R S T U V W X Y Z