Guitaretab - guitar tabs
Song name
# A B C D E F G H I J K L M N O P Q R S T U V W X Y Z

Lordi - Would You Love A Monsterman tab

Hi,this is my first tab(yay =]),so be nice,rate.;)
That's how I play this song.And I think this is 95% right.Why 95%?depends on your amp 
amp sounds good with this one.
Drop D of course.Very easy...enjoy.
Oh and listen to the song...my timing is way off ok.
just follow the sequence and you wont get lost.its all in sequence.no way you'll get lost.
And dont forget that this music is heavy as shit!
IF YOU HAVE ANY QUESTIONS/SUGGESTIONS E-MAIL ME AT:Lordi-org@hotmail.com
You're welcome to add me to your msn list.
Good Luck.


s=Slide to 0(zero)

Intro:
e|--------------------------------------------------------------------------|
B|--------------------------------------------------------------------------|
G|--------------------------------------------------------------------------|
D|--------------------------------------------------------------------------|
A|--0h2--0h2--0h2-0h2--0h2--0h2-0h2--0h2--0h2-0h2--0h2----------------------|
D|--------------------------------------------------------------------------|


e|--------------------------------------------------------------------------|
B|--------------------------------------------------------------------------|
G|--------------------------------------------------------------------------|
D|4-4-4----7-7-7------------------------------------------------------------|
A|4-4-4----7-7-7------------------------------------------------------------|
D|4-4-4----7-7-7------------------------------------------------------------|


(This part you can play it like this...) (this sounds better for me)
e|--------------------------------------------------------------------------|
B|--------------------------------------------------------------------------|
G|4----4----4----4----4----4----4----4--------------------------------------|
D|4----4----4----4----4----4----4----4--------------------------------------|
A|2----2----2----2----2----2----2----2--------------------------------------|
D|--------------------------------------------------------------------------|


(...or like this.)
e|--------------------------------------------------------------------------|
B|--------------------------------------------------------------------------|
G|--------------------------------------------------------------------------|
D|4----4----4----4----4----4----4----4--------------------------------------|
A|4----4----4----4----4----4----4----4--------------------------------------|
D|4----4----4----4----4----4----4----4--------------------------------------|

"Be right in the squares, yeah I would be sincere"
e|---------------------------------------------------------------------------|
B|---------------------------------------------------------------------------|
G|---------------------------------------------------------------------------|
D|5~ ----------------------------------------------------------------------7-|
A|5~ ----------------------------------------------------------------------7-|
D|5~ ----------------------------------------------------------------------7-|
>>>>>>>>>>>>>>>>>>>>>>>>>>>>>>>>>>>>>>>>>>>change it very quickly,from this^

e|-----------------------------------|--------------------------------------|
B|-----------------------------------|--------------------------------------|
G|-----4----4------------------------|--------------------------------------|
D|-----4----4------5~ ---------------|4-4-4----7-7-7------------------------|
A|-----2----2------5~ ---------------|4-4-4----7-7-7------------------------|
D|-----------------5~ ---------------|4-4-4----7-7-7------------------------|
to this^                              "i say yeah, I say yeah"

"Would you love a monster man..."
e|--------------------------------------------------------------------------|
B|--------------------------------------------------------------------------|
G|--------------------------------------------------------------------------|
D|9-9--7--9-9--5-5--7--9-9--7-7--5--7-7--9-9-----4--7-----------------------|
A|9-9--7--9-9--5-5--7--9-9--7-7--5--7-7--9-9-----4--7-----------------------|
D|9-9--7--9-9--5-5--7--9-9--7-7--5--7-7--9-9-----4--7-----------------------|


e|--------------------------------------------------------------------------|
B|--------------------------------------------------------------------------|
G|--------------------------------------------------------------------------|
D|9-9--7--9-9--5-5--7--9-9--7-7--5--7-7--9-9~ -------------4-4--------------|
A|9-9--7--9-9--5-5--7--9-9--7-7--5--7-7--9-9~ -------------4-4--------------|
D|9-9--7--9-9--5-5--7--9-9--7-7--5--7-7--9-9~ -------------4-4--------------|
                                    kinda quickly from this^ ^...

e|--------------------------------------------------------------------------|
B|--------------------------------------------------------------------------|
G|-------4----4----4----4----4----4----4----4-------------------------------|
D|-------4----4----4----4----4----4----4----4-------------------------------|
A|-------2----2----2----2----2----2----2----2-------------------------------|
D|--------------------------------------------------------------------------|
 to this ^

e|--------------------------------------------------------------------------|
B|--------------------------------------------------------------------------|
G|--------------------------------------------------------------------------|
D|5~ --------------------------------------------------------7--------------|
A|5~ --------------------------------------------------------7--------------|
E|5~ --------------------------------------------------------7--------------|
                                      very quickly, from this^...
[ Tab from: http://www.guitaretab.com/l/lordi/71003.html ]
e|-------------------------------------------------|------------------------|
B|-------------------------------------------------|------------------------|
G|-------4----4------------------------------------|------------------------|
D|-------4----4-------5~ --------------------------|-4-4-4----7-7-7---------|
A|-------2----2-------5~ --------------------------|-4-4-4----7-7-7---------|
D|--------------------5~ --------------------------|-4-4-4----7-7-7---------|
 to this ^


"Would you love a monster man..."
e|--------------------------------------------------------------------------|
B|--------------------------------------------------------------------------|
G|--------------------------------------------------------------------------|
D|9-9--7--9-9--5-5--7--9-9--7-7--5--7-7--9-9-----4--7-----------------------|
A|9-9--7--9-9--5-5--7--9-9--7-7--5--7-7--9-9-----4--7-----------------------|
D|9-9--7--9-9--5-5--7--9-9--7-7--5--7-7--9-9-----4--7-----------------------|


e|--------------------------------------------------------------------------|
B|--------------------------------------------------------------------------|
G|--------------------------------------------------------------------------|
D|9-9--7--9-9--5-5--7--9-9--7-7--5--7-7--9-9~ -------------4-4-4-4----------|
A|9-9--7--9-9--5-5--7--9-9--7-7--5--7-7--9-9~ -------------4-4-4-4----------|
D|9-9--7--9-9--5-5--7--9-9--7-7--5--7-7--9-9~ -------------4-4-4-4----------|

"all that you get..."
e|--------------------------------------------------------------------------|
B|--------------------------------------------------------------------------|
G|--------------------------------------------------------------------------|
D|2~ ----4~ ----5~ ---------------------------------------------------------|
A|2~ ----4~ ----5~ -----222222224444444455555555----------------------------|
D|2~ ----4~ ----5~ -----------------------------555555555-------------------|
im not      ^^
sure of     ^^
this (look) ^^
part-> (up) ^^

e|--------------------------------------------------------------------------|
B|--------------------------------------------------------------------------|
G|--------------------------------------------------------------------------|
D|2~ ----4~ ----5~ ------------------------------------7-7-7----------------|
A|2~ ----4~ ----5~ ------------------------------------7-7-7----------------|
D|2~ ----4~ ----5~ ------------------------------------7-7-7----------------|


e|------------------------|-------------------------------------------------|
B|------------------------|-------------------------------------------------|
G|------------------------|-------------------------------------------------|
D|------------------------|-------------------------------------------------|
A|0h2--0h2--0h2--0h2--5---|------------5---0--------------------------------|
D|-----------------------5|--2h3--2h3----------2------5--6------------------|


e|--------------------------------------------------------------------------|
B|--------------------------------------------------------------------------|
G|--------------------------------------------------------------------------|
D|--------------------------------------------------------------------------|
A|0h2--0h2--0h2--0h2--5-----------------------------------------------------|
D|----------------------5---------------------------------------------------|

"Solo":(if we can call that a solo)
e|--------------------------------------------------------------------------|
B|5---------5---------------------------------------------------------------|
G|----7--6-----7--6---4--6--7---6~ -----------------------------------------|
D|--------------------------------------------------------------------------|
A|--------------------------------------------------------------------------|
D|--------------------------------------------------------------------------|


e|----------------------------------------|---------------------------------|
B|----------------------------------------|---------------------------------|
G|----------------------------------------|---------------------------------|
D|4-4-4s -------------7-7-7s -------------|---------------------------------|
A|4-4-4s -------------7-7-7s -------------|---------2---5--6----------------|
E|4-4-4s -------------7-7-7s -------------|3--4--5--------------------------|


e|--------------------------------------------------------------------------|
B|--------------------------------------------------------------------------|
G|6-6--4--6-6--2-2--4--6-6--4-4--2--4-4--6-6----2-4-------------------------|
D|6-6--4--6-6--2-2--4--6-6--4-4--2--4-4--6-6----2-4-------------------------|
A|4-4--2--4-4--0-0--2--4-4--2-2--0--2-2--4-4----0-2-------------------------|
D|--------------------------------------------------------------------------|


e|--------------------------------------------------------------------------|
B|--------------------------------------------------------------------------|
G|6-6--4--6-6--2-2--4--6-6--4-4--2--4-4--6-6~ ------------------------------|
D|6-6--4--6-6--2-2--4--6-6--4-4--2--4-4--6-6~ ------------------------------|
A|4-4--2--4-4--0-0--2--4-4--2-2--0--2-2--4-4~ ------------------------------|
D|--------------------------------------------------------------------------|
                                 (^)
Now just repeat these last 2 sets(^) till the end of the music and then...

e|--------------------------------------------------------------------------|
B|--------------------------------------------------------------------------|
G|--------------------------------------------------------------------------|
D|--------------------------4~s---------------------------------------------|
A|-----------2---5---6------4~s---------------------------------------------|
D|3---4---5-----------------4~s---------------------------------------------|

That's it.Have fun playing it!
Related for Would You Love A Monsterman tab
×
Would You Love A Monsterman