Song name
# A B C D E F G H I J K L M N O P Q R S T U V W X Y Z

Lordi - Shotgun Divorce tab

    Hi, this is Bling-M and i'm 13 years old, hope you enjoy my tab  


e]------------------------------------------------------------------------|
b]------------------------------------------------------------------------|
g]------------------------------------------------------------------------|
d]------------------------------------------------------------------------|
a]-7-7-7-7-7-7-7-7---3-3-3-3-3-3-3-3---3-3-3-3---5-5-5-5---5-5-5-5--------|
E]-5-5-5-5-5-5-5-5---1-1-1-1-1-1-1-1---3-3-3-3---3-3-3-3---7-7-7-7--------|
     * *   * *   *     * *   * *   *     * *       * *       * *


e]------------------------------------------------------------------------|
b]------------------------------------------------------------------------|
g]------------------------------------------------------------------------|
d]------------------------------------------------------------------------|
a]-7-7-9-7-5-7------------------------------------------------------------|
E]-5-5-7-5-3-5------------------------------------------------------------|
   * *             X2    Then

e]------------------------------------------------------------------------|
b]------------------------------------------------------------------------|
g]------------------------------------------------------------------------|
d]------------------------------------------------------------------------|
a]-7b--5b--2-3--5--7------------------------------------------------------|
E]-5b--5b--0-1--3--5------------------------------------------------------|
                               X2              
e]------------------------------------------------------------------------|
b]------------------------------------------------------------------------|
g]------------------------------------------------------------------------|
d]--------------------------------------------------5p3h5--5p3h5----------|
a]-3-3-3-3-5-5-5-5-7-7-7-7-1-1-1-1-3-3-3-3-5-5-5-5------------------------|
E]-3-3-3-3-3-3-3-3-5-5-5-5-3-3-3-3-3-3-3-3-3-3-3-3------------------------|
   * * * * * * * * * * * * * * * * * * * * * * * * 


e]------------------------------------------------------------------------|
b]------------------------------------------------------------------------|
g]------------------------------------------------------------------------|
d]------------------------------------------------------------------------|
a]-3-3-3-3-5-5-5-5-7-7-7-7-3-3-3-3-3-3-3-3-5-5-5-5-2-2-2-2-2-2-2-2-2-2-2--|
E]-3-3-3-3-3-3-3-3-5-5-5-5-1-1-1-1-3-3-3-3-3-3-3-3-0-0-0-0-0-0-0-0-0-0-0--|
   * * * * * * * * * * * * * * * * * * * * * * * * * * * * * * * * *

The chorus am i working on, if you have some questions my e-male is blingmatte_bling@hotmail.com
Tap to rate this tab
 
# A B C D E F G H I J K L M N O P Q R S T U V W X Y Z