Guitaretab - guitar tabs
Song name
# A B C D E F G H I J K L M N O P Q R S T U V W X Y Z

Lordi - Children Of The Night tab

--------------------------------------------------------------------------
    Children of the night Solo - Lordi
-------------------------------------------------------------------------------
Tabbed by:Eyddi_cool
Email:Eythor_cs@hotmail.com

Tuning:Drop D

e|--------------------------------------------------------------------------------|
B|-10---12-12---13--15---13-12-13---12-13----17~~17~~17---------------------------|
G|--------------------------------------------------------------------------------|
D|--------------------------------------------------------------------------------|
A|--------------------------------------------------------------------------------|
D|--------------------------------------------------------------------------------|
[ Tab from: http://www.guitaretab.com/l/lordi/147124.html ]
e|--------------------------------------------------------------------------------|
B|-17-17-17-17--16--15-15--13---12-13-15---13-12--13-12---------------------------|
G|--------------------------------------------------------------------------------|
D|--------------------------------------------------------------------------------|
A|--------------------------------------------------------------------------------|
D|--------------------------------------------------------------------------------|

e|--------------------------------------------------------------------------------|
B|-10-8-10~-10-12-13---12-10----9-9-9-9-9-9-9-9-----------------------------------|
G|--------------------------------------------------------------------------------|
D|--------------------------------------------------------------------------------|
A|--------------------------------------------------------------------------------|
D|--------------------------------------------------------------------------------|

e|--------------------------------------------------------------------------------|
B|--17-17-17-17-17-17-------------------------------------------------------------|
G|--------------------------------------------------------------------------------|
D|--------------------------------------------------------------------------------|
A|--------------------------------------------------------------------------------|
D|--------------------------------------------------------------------------------|
Related for Children Of The Night tab
Advertisement will be closed in 10 seconds