Guitaretab - guitar tabs
Song name
# A B C D E F G H I J K L M N O P Q R S T U V W X Y Z

Lordi - Hard Rock Hallelujah tab

Lordi - Hard Rock Hallelujah


Intro:
|-----------------------------|----------------------------|
|-----------------------------|----------------------------|
|-----------------------------|----------------------------|
|--------5-5---7-7----------5-|--------5-5---------7--5----|
|--7-7---3-3---5-5----3-5--3-|--7-7---3-3---3-3---5--3--5-|
|--5-5----------------1--3----|--5-5---------1-1---------3-|

Pre-Verse:
|-----------------------------|-----------------------------|
|-----------------------------|-----------------------------|
|--5---5-4---4-5-4----7--4--5-|--5---5-4---4-5-4---7--5-----|
|--5--5-4---4-5-4----7--4-5-|--5---5-4---4-5-4---7--5-----|
|--3---3-2---2-3-2----5--2--3-|--3---3-2---2-3-2---5--3-----|
|-----------------------------|-----------------------------|

Verse 1:
|--------------------------------------|
|--------------------------------------|
|--------------------------------------|
|-----------------------------7-7------|     (x2
|--7-7------7-7------5-5------5-5--3-5-|
|--5-5------5-5------3-3-----------1-3-|

Pre-Chorus:
|----------------------------------|------------------------------|
|----------------------------------|------------------------------|
|----------------------------------|------------------------------|
|-----2-----------------2----------|--------------------2---------|
|-------0-3-0-2-3---0-0---0-3-0-2~-|------2--2-3-5--------3-2-0---|
|-1-1------------------------------|--3-3-----------1-1---------3-|

|----------------------------------|------------------------------|
|----------------------------------|------------------------------|
|----------------------------------|---------------------9---7-9--|
|-----2-----------------2----------|---------------------9---7-9--|
|-------0-3-0-2-3---0-0---0-3-0-2~-|------2--2-3-5-------7---5-7--|
|-1-1------------------------------|--3-3----------0--------------|

Chorus:
|-----------------------------------------------|
|-----------------------------------------------|
|---------------------------5----7---3----------|      (x2)
|------7------5------3------5----7---3---3---5--|
|------7------5------3--3-3-3----5---1---3---5--|
|--5-5-5--3-3-3--1-1-1-------------------1---3--|
   . .    . .    . .    . . 

Pre-Verse:
|-----------------------------|-----------------------------|
|-----------------------------|-----------------------------|
|--5---5-4---4-5-4----7--4--5-|--5---5-4---4-5-4---7--5-----|
|--5--5-4---4-5-4----7--4-5-|--5---5-4---4-5-4---7--5-----|
|--3---3-2---2-3-2----5--2--3-|--3---3-2---2-3-2---5--3-----|
|-----------------------------|-----------------------------|




Pre-Verse:
|-----------------------------|-----------------------------|
|-----------------------------|-----------------------------|
|--5---5-4---4-5-4----7--4--5-|--5---5-4---4-5-4---7--5-----|
|--5--5-4---4-5-4----7--4-5-|--5---5-4---4-5-4---7--5-----|
|--3---3-2---2-3-2----5--2--3-|--3---3-2---2-3-2---5--3-----|
|-----------------------------|-----------------------------|
[ Tab from: http://www.guitaretab.com/l/lordi/72031.html ]
Verse 2:
|---------------------------------------------------|
|---------------------------------------------------| 
|---------------------------------------------------|   (x2)
|--------------------x-x-x-5------------7-7---------|
|--7-7------7-7------x-x-x-3---5-5------5-5---3-5---|
|--5-5------5-5------x-x-x-----3-3------------1-3---|

Pre-Chorus:
|----------------------------------|------------------------------|
|----------------------------------|------------------------------|
|----------------------------------|------------------------------|
|-----2-----------------2----------|--------------------2---------|
|-------0-3-0-2-3---0-0---0-3-0-2~-|------2--2-3-5--------3-2-0---|
|-1-1------------------------------|--3-3-----------1-1---------3-|

|----------------------------------|------------------------------|
|----------------------------------|------------------------------|
|----------------------------------|---------------------9---7-9--|
|-----2-----------------2----------|---------------------9---7-9--|
|-------0-3-0-2-3---0-0---0-3-0-2~-|------2--2-3-5-------7---5-7--|
|-1-1------------------------------|--3-3----------0--------------|



Chorus:
|-----------------------------------------------|
|-----------------------------------------------|
|---------------------------5----7---3----------|      (x2)
|------7------5------3------5----7---3---3---5--|
|------7------5------3--3-3-3----5---1---3---5--|
|--5-5-5--3-3-3--1-1-1-------------------1---3--|
   . .    . .    . .    . . 

Bridge:
|----------------------------------------------------------------------|
|----------------------------------------------------------------------|
|------------------------------(x2)--------------------------------5---|
|--2~-------7~----------[9--------------]--9-/-11-/-12---7---5-7---5---|
|--2~-------7~----------[7--------------]--7-/--9-/-10---7---5-7---3---|
|--0~-------5~----------[0-0-0-0-0-0-0-0]----------------5---3-5-------|
				   . . . . . . .	

Intro 2:
|-------------------------------|----------------------------|
|-------------------------------|----------------------------|
|-------------------------------|----------------------------|
|----------------------------5--|-------------------7--5-----|
|--7-7-----------------3-5--3--|--7-7--------------5--3--7--|
|--5-5-----------------1--3-----|--5-5--------------------5--|





|----------------------|
|----------------------|
|----------------------|
|-------------------2--|
|--7-7--------------2--|
|--5-5----------0-0-0--|


Chorus:
|-----------------------------------------------|
|-----------------------------------------------|
|---------------------------5----7---3----------|      (x2)
|------7------5------3------5----7---3---3---5--|
|------7------5------3--3-3-3----5---1---3---5--|
|--5-5-5--3-3-3--1-1-1-------------------1---3--|
   . .    . .    . .    . . 


|---------------------------|-------|
|---------------------------|-------|
|---------------------------|-------|
|--------5-5---------7-5----|-------|
|--7-7---3-3---3-3---5-3-7--|--5-7--|
|--5-5---------1-1-------5--|--3-5--|
Related for Hard Rock Hallelujah tab