Guitaretab - guitar tabs
Song name
# A B C D E F G H I J K L M N O P Q R S T U V W X Y Z

Los Piojos - Tan Solo tab

-------------------------------------------------------------------------------
			     TAN SOLO - Los Piojos
-------------------------------------------------------------------------------
Tabbed by: Matias Espina
Email: matias_elkabezon@hotmail.com


Importante: La primera nota de cada comps es una negra, el resto, contando las X, son
Las X no son notas mutadas sino golpes. Los puntos dan referencia a que se repite. El
up / se hace la primera vez, en la segunda no se hace.

    C                      Bb                    F                     C
e|-----------------------|---------------------|---------------------|--------------------------|
B|----------------------|---------------------|---------------------|-----------------------|
G|-----------------------|---------------------|---------------------|--------------------------|
D|------x----------------|----x-----3----------|----x----------------|----x---------------------|
A|-/3--x--3--------3--2-|-1--x--1-----1-------|----x-----0--0--1--2-|-3--x--3--------12---|
E|------x-----3--3-------|----x-----------3--2-|-1--x--1-------------|----x-----3--3------------|

Este punteo se repite todo el tiempo, excepto en el estribillo, que es donde cambia.

    C
Quiz no sea el vino
    Bb
Quiz no sea el postre
    F
Quiz no sea
        C
No sea nada.

      C
Pero hay tanta belleza
   Bb
Tirada en la mesa
   F              C
Desnuda toda rebalsada.

C
Apuras el vaso
Bb
Vas perdiendo el paso
  F                     C
Y en la mesa ya no hay nada.
[ Tab from: http://www.guitaretab.com/l/los-piojos/144612.html ]
   C
Borracha esta la puerta
    Bb
Cerraste y quedo abierta
    F                  C
Y puedo escuchar tu llamada.
                      
 C   Bb      F     C  |
Oh! Oh! Tan solo...   |
 C   Bb      F     C  | (BIS)
Oh! Oh! Tan solo...   |
                      
    C
Servida ya tu boca
     Bb
Tan dulce esta tu boca
     F                    C
Tan dulce como un blues amargo

   C
Un vaso rueda al piso
 Bb
Lento cae al piso
 F                     C
Lento y muere en mil pedazos

            C
No quiero dejar que se vean
    Bb
Tus ojos se vean
 F              C
Tan, tan, tan, tristes

      C
Habr sido es destino
     Bb          F
Ese vaso de vino...
       C
Que dijiste...


 (BIS)

C          Bb          F
Salta la cuerda, se enreda
         C
Y cae de boca (x4)

 (BIS x 2)


En los estribillos (Bis) Cambia el punteo:

    C                      Bb                    F                     C
e|----------------------|---------------------|---------------------|--------------------|
B|----------------------|---------------------|---------------------|--------------------|
G|----------------------|---------------------|---------------------|--------------------|
D|----------------------|---------------------|----x----------------|----x---------------|
A|-3--------------------|-1-------------------|----x-----0--0--1--2-|-3--x--3--------1--2|
E|----------------------|---------------------|-1--x--1-------------|----x-----3--3------|

Las primeras notas de los dos primeros compases son redondas, el resto ya lo saben.


Ah est, eso es todo, y creera que est un 99% bien.
Por cualquier duda o error que haya cometido, mndenme un mail a la direccin dada.
Related for Tan Solo tab