Song name
# A B C D E F G H I J K L M N O P Q R S T U V W X Y Z

Los Piojos - Muy Despacito tab

Band: Los Piojos
Album: Ay Ay Ay (1994)
Title: Muy Despacito (Andres Ciro Martinez)


I Choose this wonderfull song from Los Piojos ( One of the best bands in Argentina), Because this was one of my first songs than i can play in my guitar. Just try to heard this song and play it.
any comments or doubt, send me an e-mail at juan87@yahoo.com

INTRO

e:------2-------2-------2-----2---2-----2-------2-------5-------4-----------
B:--------3-------3--------3--------------3-------3--------3-------3--------
G:----2-------2-------2---------------2-------2-------4-------4-------------
D:--0-------4-------0-------4---3---0-------4-------5-------5---------------
A:--------------------------------------------------------------------------
E:--------------------------------------------------------------------------

e:------2-------2-----------1-----------------5-----------------------------
B:--------3-------3-----------1-----------------3---------------------------
G:----2-------2---------2-------2---------4-------4-------------------------
D:--0-------4---------3---3-------------5---5-------------------------------
A:--------------------------------------------------------------------------
E:--------------------------------------------------------------------------

VERSE

D           
Jardines de calma feroz,
Am
un sol de infinita paciencia
C                                  D   Dsus4 D
los locos cantan su canci?n y aplauden.
D
Se acercan de a uno de a dos
Am
se va formando la ronda,
C                              D               Dsus4 D
una enfermera tetona imita una estrella de rock.
D
Se r?en y del pared?n,
Am
el eco aplaude contento,
C                  
el viejo dice que esta bien
        D    Dsus4 D
vamos adentro.
D
Andr?s veni por favor
Am
acompa?ame un poquito
     C
dice uno,               
               D    Dsus4 D
solo dame la mano.

BRIDGE

Am
  Muy despacito
C
  sobre el abismo
D
  volar?.

Repeat VERSe
Repeat BRIDGE x2

Am
 Abajo el sol, 
C
 abajo el sol, 
    D
 yo ver 
Am
 Abajo el sol, 
C
 abajo el sol, 
     D
 llover.

BRIDGE2

(F - G - D - Dsus4 D)x2

Harmonica Solo over chords of VERSEx2

        D           
Uooooooooh, Uooooooh
        Am         
Uooooooooh, Uoooooooh
        C           
Uooooooooh, Uoooooooh           
        D
Ayayayayayayayayyy   x2
       
CHORUS
 
F          G
 Muy despacito        
      D
 volareeeeeee
F           G
 Sobre el abismo
      D
 volareeeeeee...   x2

OUTRO

F7 - G7 - D

------------------
Tabbed By JuaN87 (juan87@yahoo.com)
Juan Manuel Cabanas 
20-03-2003

-Paz para todo el mundo-
Tap to rate this tab
 
# A B C D E F G H I J K L M N O P Q R S T U V W X Y Z