Guitaretab - guitar tabs
Song name
# A B C D E F G H I J K L M N O P Q R S T U V W X Y Z

Los Prisioneros - Sexo tab

 |-5---5----------1---1-----------|        |-----0---------0--|
 |-7------7-------3------3--------|        |-----3------------|
 |-6---------6----2---------2-----|(bis)   |-----1------1-----|
 |-7--------------3---------------|        |-----0------------|
 |-0--------------0---------------|        |-2---2---2--------|
 |-x--------------x---------------|        |-----x------------|
[ Tab from: http://www.guitaretab.com/l/los-prisioneros/31724.html ]
(1eracorde)      (2doacorde)      (3eracorde)      (4toacorde)
 |---5---|        |---4---|        |---5---|        |---7---|
 |---5---|        |---5---|        |---7---|        |---9---|
 |---6---|        |---6---|        |---7---|        |---9---|
 |---7---|(4veces)|---6---|(4veces)|---7---|(4veces)|---9---|(4veces)
 |---7---|        |---4---|        |---5---|        |---7---|
 |---5---|        |---x---|        |---x---|        |---x---|

                   (lo repites 2 veces ,y cuando haces
                       el 4toacorde lo haces 8 veces)  (y el rasgeo de
                                                        arriba a bajo)         
 

 El mejor gancho comercial ......
 |---5---|        |---3---|        |---5---|
 |---5---|        |---4---|        |---5---|
 |---6---|        |---5---|        |---6---|
 |---7---|(4veces)|---5---|(2veces)|---7---|(6veces)
 |---7---|        |---3---|        |---7---|
 |---5---|        |---3---|        |---5---|
        
                      
 (es una cacion muy facil de tocar) 


mi mAil es jiv_20@hotmail.com           escribe para que me corrigas .
Related for Sexo tab
Sexo chords by Los Prisioneros