Song name
# A B C D E F G H I J K L M N O P Q R S T U V W X Y Z

Los Saicos - Demolicion tab

mi mail       joe_strummer21@hotmail.com   arriba Peru ˇˇˇˇ

los Saicos - 1965
(Erwin Flores / Rolando Carpio

interprete : Erwin Flores

Intro: 

e |-------------------------|
b |-------------------------|
g |-------------------------|
D |-------------------------|
A |--4-----9------4-----2---|
E |--5-----10-----5-----0---|


ˇ TATATATATATA  YAYAYAYA ˇ


       A
ECHEMOS ABAJO LA ESTACION DEL TREN

ECHEMOS ABAJO LA ESTACION DEL TREN

ECHEMOS ABAJO LA ESTACION DEL TREN

ECHEMOS ABAJO LA ESTACION DEL TREN

     D
DEMOLER DEMOLER DEMOLER DEMOLER
   A
ECHEMOS ABAJO LA ESTACION DEL TREN
     E
DEMOLER DEMOLER LA ESTACION DEL TREN

DEMOLER DEMOLER LA ESTACION DEL TREN

TATATATATATA  YAYAYAYA ˇ
 

     A
NOS GUSTA VOLAR ESTACIONES DE TREN

DEMOLER DEMOLER DEMOLER DEMOLER
     A
NOS GUSTA VOLAR ESTACIONES DE TREN
                                   
DEMOLER DEMOLER DEMOLER DEMOLER


D
YEAH YEAH YEAH YEAH YEAH YEAH YEAH 

YEAH YEAH YEAH YEAH YEAH YEAH YEAH - CORO 
A
YEAH YEAH YEAH YEAH YEAH YEAH YEAH 

YEAH YEAH YEAH YEAH YEAH YEAH YEAH - CORO
E                                    E7
DEMOLER DEMOLER DEMOLER DEMOLER DEMOLER


TATATATATATA  YAYAYAYA ˇ

PUNTEO :

     A         D             A           E
e |--------------------------------------------------|
b |-----------3-2-3-2*-------------------------------|
g |-2-1-2-1*----------------2-1-2-1*-----------------|
D |-------------------------------------2-1-2-1*-----|
A |--------------------------------------------------|
E |--------------------------------------------------|

TATATATATATA  YAYAYAYA


( repetir nuevamente la canción )


FINAL 

                        A
TATATATATATA  YAYAYAYA WAAUUUU ˇ
Tap to rate this tab
# A B C D E F G H I J K L M N O P Q R S T U V W X Y Z