Guitaretab - guitar tabs
Song name
# A B C D E F G H I J K L M N O P Q R S T U V W X Y Z

Los Saicos - Salvaje tab

Highlighted       Show chord diagrams
SALVAJE
LOS SAICOS  1965

singer : CESAR CASTRILLON ( BASS )


INTRO

Em  C  Em  C  Em  C  B7

AHHHHHHHHHHH

         Em
YA YA YA YA
   C         Em
SALVAJE OHHH YA
   C         Em
SALVAJE OHHH YA
   C                   Em
SALVAJE ES UN POTRO CERRIL
B7
AHHHHHHH

         Em
YA YA YA YA

   Em
SALVAJE  ( SALVAJE , SALVAJE )
               C
VELOZ COMO EL VIENTO  ( VELOZ COMO EL VIENTO )
               D
CON CASCO DE ACERO  ( CON CASCO DE ACERO )
            B7
MAS YO LO LACE

   Em
SALVAJE  ( SALVAJE , SALVAJE )
                C
ME HECHA DE LA SILLA  ( ME HECHA DE LA SILLA )
            D
TRATA DE PATEARME  ( TRATA DE PATEARME )
            B7
ME QUIERE MATAR

         Em
YA YA YA YA
   C         Em
SALVAJE OHHH YA
   C         Em 
SALVAJE OHHH YA
   C                    Em
SALVAJE ES UN POTRO CERRIL
B7
AHHHHHHH
[ Tab from: http://www.guitaretab.com/l/los-saicos/180316.html ]
            Em
YA  YA  YA  YA


RIFF

   Em      C       Em      C       Em      C         B7

e|-7---7---8---8---7---7---8---8---7---7---8---8-----7-----7-|
b|--8---8---8---8---8---8---8---8---8---8---8---8-8--7-10--7-|
g|---9---9---9---9---9---9---9---9---9---9---9----9--8-8---8-|
D|-----------------------------------------------------------|
A|-----------------------------------------------------------|
E|-----------------------------------------------------------|
                                                       WUAAA

   Em      C       Em      C       Em      C         B7

e|-7---7---8---8---7---7---8---8---7---7---8---8-----7-----7-|
b|--8---8---8---8---8---8---8---8---8---8---8---8-8--7-10--7-|
g|---9---9---9---9---9---9---9---9---9---9---9----9--8-8---8-|
D|---------------------------------------------------------9-|
A|-----------------------------------------------------------|
E|-----------------------------------------------------------|

( repeat song )


End

Em  C  Em  C  Em
              WAU
Related for Salvaje tab