Guitaretab - guitar tabs
Song name
# A B C D E F G H I J K L M N O P Q R S T U V W X Y Z

Lostprophets - I Dont Know tab

I DON'T KNOW
COLBY RAMPTON

Capo III

Intro and Verses:

e----3------------3------------3-----------------------|
B----3------------3------------3-----------------------|
G----0------------0------------0-----------0h2-0-------|
D------------------------------------0-0h2-------2-----|
A-------x--0-0h2-----x--2-2h3-----x----------------0h2-|
E--3----x------------x------------x--------------------|

e----3------------3------------3------------------|
B----3------------3------------3------------------|
G----0------------0------------0-----------0h2-0--|
D------------------------------------0-0h2--------|   (x2)
A-------x--0-0h2-----x--2-2h3-----x---------------|
E--3----x------------x------------x---------------|


-Verse 1-
I don't know what it is you do to me                
All I know is my heart's pinned baby, one-two-three
    Am                   Em
It seems to me that I'm high on you
    Am                                 D     Dsus D
So high up in the clouds I don't know what to do


-Verse 2-
I don't know why you're spunky, and girl, you're so darn hot
                                                    Gm
All I know is you'll like me, even though I'm not
      Am                           Em
With your teasin' eyes you always play your games
     Am                        D     Dsus D
But baby, baby, baby come on, say my name

[ Tab from: http://www.guitaretab.com/l/lostprophets/131183.html ]
-Chorus-
      Am                          Em
When boys walk by, they stop and stare
                          Bm                   Am
Wonderin', how'd he get her, Truth is I don't know
         C                      Em
I get shivers when I hold your hand
                        Bm               C           G
Girl you just don't understand, what you do    to me


-Verse 3-
I don't know why you always giggle when we kiss
                                                     Gm
All I know is I'm smilin', thinkin', I like this
    Am                   Em
It seems to me that you can't get away
        Am                         D      Dsus D
You're stuck in my mind every hour of the day


-Chorus 2-
      Am                        Em
When boys call, you don't even care
                              Bm          Am
You say you're washing your hair, ooh ooh ooh
         C                      Em
I get shivers when I hold your hand
                        Bm               C           G
Girl you just don't understand, what you do    to me


-Sax Solo-
(Intro and Verse)
Am Em Am D Dsus D

-Verse 4-
I don't know what it is you do to me
All I know is I'm raisin' a white flag, please take me
    Am                 Em
My heart, my soul, my brain is numb
              Am                          D  Dsus D
But it ain't never felt so groovy to feel so dumb


Chorus 1


-Outro-
(Intro and Verse Picking)
I don't know, I don't know, what you do, what you do to me


http://www.colbyrampton.com/index.php
Related for I Dont Know tab