Guitaretab - guitar tabs
Song name
# A B C D E F G H I J K L M N O P Q R S T U V W X Y Z

Lostprophets - In The Air Tonight tab

---------------------------------------------------------------------
	         In the air tonight - Lostprophets
---------------------------------------------------------------------
This is the correct spelling for lostprophets ultimate guitar ;)otherwise put it under lost prophets

Tabbed by: Dico	
Email:  tobyintobysbasket@hotmail.com

Tuning: D-A-D-G-B-E

This is like my first tab ever *applaud* and is the Phil Collins cover off the last summer single.

80% of the song is done with keyboard except the end, which I think he uses a custom 24.

One more thing the chords are the same chords and are simple but they change pattern every time.

3:21 after the interlude
e|------------------------------------------------------------------|
B|------------------------------------------------------------------|
G|------------------------------------------------------------------|
D|-0--0--0---0--0--0------------------------------------------------|
A|-0--0--0---0--0--0------------------------------------------------|
D|-0--0--0---0--0--0------------------------------------------------|
   PM.............................................

   I can feel it coming in the air tonight.   Oh lord. 
e|------------------------------------------------------------------|
B|------------------------------------------------------------------|
G|------------------------------------------------------------------|
D|-0-let ring--------------------------3---------55-----------------|
A|-0-----------------------------------1---------33-----------------|
D|-0----------------------------------------------------------------|

  I've been waiting for this moment all of my life.  Oh lord
e|------------------------------------------------------------------|
B|------------------------------------------------------------------|
G|------------------------------------------------------------------|
D|-0-let ring---------------------------------33--------55----5-5-7-|
A|-0------------------------------------------11--------33----3-3-5-|
D|-0----------------------------------------------------------------|
[ Tab from: http://www.guitaretab.com/l/lostprophets/132480.html ]
  Can you feel it coming in the air tonight?      Oh lord.
e|------------------------------------------------------------------|
B|------------------------------------------------------------------|
G|------------------------------------------------------------------|
D|-0-let ring----------------------------3------------5-------------|
A|-0-------------------------------------1------------3-------------|
D|-0----------------------------------------------------------------|

  I've been waiting for this moment all of my life.  Oh lord.
e|------------------------------------------------------------------|
B|------------------------------------------------------------------|
G|------------------------------------------------------------------|
D|-0-0----------------------------------------33--------55----5-5-7-|
A|-0-0----------------------------------------11--------33----3-3-5-|
D|-0-0--------------------------------------------------------------|




e|------------------------------------------------------------------|
B|------------------------------------------------------------------|
G|------------------------------------------------------------------|
D|-0------------------------------------------33--------55----------|
A|-0------------------------------------------11--------33----------|
D|-0----------------------------------------------------------------|

   I can feel it coming in the air tonight.       Oh lord.
e|------------------------------------------------------------------|
B|------------------------------------------------------------------|
G|------------------------------------------------------------------|
D|-0-let ring------------------------33--------------55-------5-5-7-|
A|-0---------------------------------11--------------33-------3-3-5-|
D|-0----------------------------------------------------------------|

   I've been waiting for this moment all of my life.  Ohhhh
e|------------------------------------------------------------------|
B|------------------------------------------------------------------|
G|------------------------------------------------------------------|
D|-0-let ring----------------------------------3---------5----------|
A|-0-------------------------------------------1---------3----------|
D|-0----------------------------------------------------------------|

                           For all of my life.
e|------------------------------------------------------------------|
B|------------------------------------------------------------------|
G|------------------------------------------------------------------|
D|-0---0-let ring til end-------------------------------------------|
A|-0---0------------------------------------------------------------|
D|-0---0------------------------------------------------------------|


| /  slide up
| \  slide down
| h  hammer-on
| p  pull-off
| ~  vibrato
| +  harmonic
| x  Mute note
=====================================================================
Related for In The Air Tonight tab
Advertisement will be closed in 10 seconds