Guitaretab - guitar tabs
Song name
# A B C D E F G H I J K L M N O P Q R S T U V W X Y Z

Lostprophets - Gothic tab

Normal tuning
Intro: Play once (continues quieter when singing starts)
--77---55---77----------77---55---77-----3----|
00--003--3-2--2-3-55-3-0--003--3-2--2-3-5-5-0-|
----------------------------------------------|
----------------------------------------------|
----------------------------------------------|
----------------------------------------------|
Verse 1:Play 6x while intro continues 3x
------------|
------------|
------------|
9--7--4--7--|
9--7--4--7--|
7--5--2--5--|
Before chorus:play 1x|||Stuff in parentheses is palm muted
-----------------------------------------------------------------------------|
-----------------------------------------------------------------------------|
-----------------------------------------------------------------------------|
(999999999999-11-11-11-11-11-11-11-11-11-11-11-11-99999999999999999999)9--99-|
(999999999999-11-11-11-11-11-11-11-11-11-11-11-11-99999999999999999999)9--99-|
(777777777777-9--9--9--9--9--9--9--9--9--9--9--9--77777777777777777777)7--77-|
Chorus: Play 1x
----------------------------------------------------------------------------------|
----------------------------------------------------------------------------------|
----------------------------------------------------------------------------------|
9999999999-777777777-5555555555555555555-9999999999-777777777-555555555-777777777-|
9999999999-777777777-5555555555555555555-9999999999-777777777-555555555-777777777-|
7777777777-555555555-3333333333333333333-7777777777-555555555-333333333-555555555-|
Verse 2:Play4x
------------|
------------|
------------|
9--7--4--7--|
9--7--4--7--|
7--5--2--5--|
Before chorus:play 1x|||Stuff in parentheses is palm muted
----------------------------------------------------------------------|
----------------------------------------------------------------------|
----------------------------------------------------------------------|
(999999999999-11-11-11-11-11-11-11-11-11-11-11-11-9999999999999999999-|
(999999999999-11-11-11-11-11-11-11-11-11-11-11-11-9999999999999999999-|
(777777777777-9--9--9--9--9--9--9--9--9--9--9--9--7777777777777777777-|
Chorus: Play 1x
----------------------------------------------------------------------------------|
----------------------------------------------------------------------------------|
----------------------------------------------------------------------------------|
9999999999-777777777-5555555555555555555-9999999999-777777777-555555555-777777777-|
9999999999-777777777-5555555555555555555-9999999999-777777777-555555555-777777777-|
7777777777-555555555-3333333333333333333-7777777777-555555555-333333333-555555555-|
Chords/Solo/whatever it is:Play 1x
1---------------3--0----0------0-3--1---------------3--0----0----3-2--|
0---0-3-0----0-3---2---0-0----0-----0---0-3-0----0-3---2---0-0------3-|
0--0--------0------2--2------2------0--0--------0------2--2-----------|
0-0--------0-------2-2------2-------0-0--------0-------2-2------2-----|
2------------------0----------------2------------------0--------------|
3------------------0----------------3------------------0--------------|
3rd verse:Play 1x
------------------------------------------------------------------------|
------------------------------------------------------------------------|
------------------------------------------------------------------------|
99999999-44444444-55555555-44444444-99999999-44444444-55555555-77777777-|
99999999-44444444-55555555-44444444-99999999-44444444-55555555-77777777-|
77777777-22222222-33333333-22222222-77777777-22222222-33333333-55555555-|

----------------------------------|
----------------------------------|
----------------------------------|
99999999-44444444-5555555555555555
99999999-44444444-5555555555555555
77777777-22222222-3333333333333333
Before Chorus
------------------------------------------------------|
------------------------------------------------------|
------------------------------------------------------|
99999999-11-11-11-11-11-11-11-11-11-11-11-11-11-11-11-|
99999999-11-11-11-11-11-11-11-11-11-11-11-11-11-11-11-|
77777777-9--9--9--9--9--9--9--9--9--9--9--9--9--9--9--|
Chorus: Play 1x
----------------------------------------------------------------------------------|
----------------------------------------------------------------------------------|
----------------------------------------------------------------------------------|
9999999999-777777777-5555555555555555555-9999999999-777777777-555555555-777777777-|
9999999999-777777777-5555555555555555555-9999999999-777777777-555555555-777777777-|
7777777777-555555555-3333333333333333333-7777777777-555555555-333333333-555555555-|
Outro:Play 1x
--77---55---77----------77---55---77-----3----|
00--003--3-2--2-3-55-3-0--003--3-2--2-3-5-5-0-|
----------------------------------------------|
----------------------------------------------|
----------------------------------------------|
----------------------------------------------|

--77---55---77----------77---55---77-----3---7------|
00--003--3-2--2-3-55-3-0--003--3-2--2-3-5-5---3-5-2-|
----------------------------------------------------|
----------------------------------------------------|
----------------------------------------------------|
----------------------------------------------------|

THE END

Tabs by Scott Lindberg
[ Tab from: http://www.guitaretab.com/l/lostprophets/133782.html ]
Related for Gothic tab