Song name
# A B C D E F G H I J K L M N O P Q R S T U V W X Y Z

Lostprophets - Where We Belong tab

Where we Belong
Lostprophets

E-mail: jamie.vincent@gmail.com

my first attempt at a tab, i'm fairly sure it's accurate. It sounds good when you pay 
with the song. Hope it Helps. If you have any suggestions or changes e-mail me.

Intro
Guitar I
e|--------------------------------------------------------------------------|
b|--------------------------------------------------------------------------|
g|-------6-6-6-6-6-6-6-6-6-6-6-6-6-6-6-6-6-6-6-6-6-6-6-6-6-6-6-6------------|
d|--------------------------------------------------------------------------|
a|--------------------------------------------------------------------------|
e|--------------------------------------------------------------------------|
This is played through out the song almost.

Chorus
e|--------------------------------------------------------------------------|
b|--------------------------------------------------------------------------|
g|----6--------13--------15-------11-------6-------13-------11--------------|
d|----6-(x8)---13-(x8)---15--(x8)-11--(x8)-6--(x8)-13--(x8)-11--(x16)-------|
a|----4--------11--------13--------9-------4-------11--------9--------------|
e|--------------------------------------------------------------------------|


Verse
e|-----------------------------------------------------------------------|
b|----9-xx-9-xx-9-xx-9-xx-9-xx-9-xx-9--9-7-6-----------------------------|
g|----6-xx-6-xx-6-xx-6-xx-6-xx-6-xx-6--6-6-6-----------------------------|
d|-----------------------------------------------------------------------|
a|-----------------------------------------------------------------------|
e|-----------------------------------------------------------------------|(x2)

Bridge
(1:27-1:48)
"So Take These Stones Away..."
I'm not sure if there is guitar in this bit or if it's just bass, but if there is guitar 
goes like this.

e|--------------------------------------------------------------------------|
b|--------------------------------------------------------------------------|
g|---6---13---15---11---6---8-----------------------------------------------|
d|---6---13---15---11---6---8---8---6---------------------------------------|
a|---4---11---13----9---4---6---8---6---------------------------------------|
e|------------------------------6---4---------------------------------------|

Then its the chorus again.

Then the Verse

Then the Bridge

Then Chorus

Breakdown
(3:10-3:48)

e|-----------------------------------------------------------------------|
b|-----------------------------------------------------------------------|
g|-----------------------------------------------------------------------|
d|---66666666-1313131313131313-1515151515151515-1111111111111111---------|
a|---44444444-1111111111111111-1313131313131313--9-9-9-9-9-9-9-9---------|
e|-----------------------------------------------------------------------|(x2)
      .  .  .  .  .  .  .  .  .  .  .  .  .  .  .  .  .  .  .  .

Palm Muted

And for the outro its just the Chorus again.

A pretty simple song.
Tap to rate this tab
 
# A B C D E F G H I J K L M N O P Q R S T U V W X Y Z