Song name
# A B C D E F G H I J K L M N O P Q R S T U V W X Y Z

Lotus - Wax tab

Wax
tabbed from 3/6/11 show

E|----------------------------------|------------------------------|-----
B|----------------------------------|------------------------------|-----
G|----------12--10------10------10--|----------12--10--------------|-----
D|------12----------13------12------|------12----------10--11--12--|-----
A|--10------------------------------|--10--------------------------|-----
E|----------------------------------|------------------------------|-----


E|-----------|--------------------|--
B|-----------|--------------------|--
G|-----------|--------------------|--
D|--12~~\----|--12~--10--10--12~--|--
A|--10~~\----|--10---8---8---10---|--
E|-----------|--------------------|--


E|-----------------13-------------------------------------------------|
B|--11h12------12------13--15--14~--13--13--12------------------------|
G|---------12-----------------------------------10~--13--13--12-------|
D|---------------------------------------------------------------12~--|
A|--------------------------------------------------------------------|
E|--------------------------------------------------------------------|

E|-----------------13--------------------------------------------|
B|--11h12------12------13--15--14~--13--13--12-------------------|
G|---------12----------------------------------10~--13--13--12~--|
D|---------------------------------------------------------------|
A|---------------------------------------------------------------|
E|---------------------------------------------------------------|
Tap to rate this tab
# A B C D E F G H I J K L M N O P Q R S T U V W X Y Z