Guitaretab - guitar tabs
Song name
# A B C D E F G H I J K L M N O P Q R S T U V W X Y Z

Loverboy - Dangerous tab

-------------------------------------------------------------------------------
			     DANGEROUS - Loverboy
-------------------------------------------------------------------------------
Tabbed by: Wildingman
Email: wildingman@gmail.com

Tuning: Standard

                        Play this first into part 2 times

                 D sus    D                    D     D sus

e|----------------3-------2--------------------2-------3---------------------|
B|----------------3-------3--------------------3-------3---------------------|
G|----------------2-------2--------------------2-------2---------------------|
D|---------------------------------------------------------------------------|
A|---------------------------------------------------------------------------|
E|----0--0--0---------------------0--0--0------------------------------------|

e|----------------3-------2------------------0------2----2-------------------|
B|----------------3-------3------------------3------3----3-------------------|
G|----------------2-------2------------------2------2----2-------------------|
D|---------------------------------------------------------------------------|
A|---------------------------------------------------------------------------|
E|----0--0--0---------------------0--0---------------------------------------|

e|----------------3-------2---------------------2-------3--------------------|
B|----------------3-------3---------------------3-------3--------------------|
G|----------------2-------2---------------------2-------2--------------------|
D|---------------------------------------------------------------------------|
A|---------------------------------------------------------------------------|
E|-----0--0--0---------------------0--0--0-----------------------------------|

e|----------------3-------2------------------0-------2----2------------------|
B|----------------3-------3------------------3-------3----3------------------|
G|----------------2-------2------------------2-------2----2------------------|
D|---------------------------------------------------------------------------|
A|---------------------------------------------------------------------------|
E|------0--0--0---------------------0--0-------------------------------------|

e|---------------------------------------------------------------------------|
B|-15--13--15--12--15------15--13----15--13--15--12--15------15---13---------|
G|---------------------14--------------------------------14------------------|
D|---------------------------------------------------------------------------|
A|---------------------------------------------------------------------------|
E|---------------------------------------------------------------------------|
[ Tab from: http://www.guitaretab.com/l/loverboy/182208.html ]
e|---------------------------------------------------------------------------|
B|-15--13--15--12--15------15--13----15--13--15--12--15------15---13---------|
G|---------------------14--------------------------------14------------------|
D|---------------------------------------------------------------------------|
A|---------------------------------------------------------------------------|
E|---------------------------------------------------------------------------|

e|--------12-15-17-19--------------------------------------------------------|
B|--12-15--------------------------------------------------------------------|
G|---------------------------------------------------------------------------|
D|---------------------------------------------------------------------------|
A|---------------------------------------------------------------------------|
E|---------------------------------------------------------------------------|

e|----------------3-------2--------------------2-------3---------------------|
B|----------------3-------3--------------------3-------3---------------------|
G|----------------2-------2--------------------2-------2---------------------|
D|---------------------------------------------------------------------------|
A|---------------------------------------------------------------------------|
E|----0--0--0---------------------0--0--0------------------------------------|

e|----------------3-------2------------------0------2----2-------------------|
B|----------------3-------3------------------3------3----3-------------------|
G|----------------2-------2------------------2------2----2-------------------|
D|---------------------------------------------------------------------------|
A|---------------------------------------------------------------------------|
E|----0--0--0---------------------0--0---------------------------------------|

e|----------------3-------2---------------------2-------3--------------------|
B|----------------3-------3---------------------3-------3--------------------|
G|----------------2-------2---------------------2-------2--------------------|
D|---------------------------------------------------------------------------|
A|---------------------------------------------------------------------------|
E|-----0--0--0---------------------0--0--0-----------------------------------|

e|----------------3-------2------------------0-------2----2------------------|
B|----------------3-------3------------------3-------3----3------------------|
G|----------------2-------2------------------2-------2----2------------------|
D|---------------------------------------------------------------------------|
A|---------------------------------------------------------------------------|
E|------0--0--0---------------------0--0-------------------------------------|


| /  slide up
| \  slide down
| h  hammer-on
| p  pull-off
| ~  vibrato
| +  harmonic
| x  Mute note
===============================================================================
Related for Dangerous tab