Song name
# A B C D E F G H I J K L M N O P Q R S T U V W X Y Z

Lucky Boys Confusion - Childs Play tab

Artist: Lucky Boys Confusion
Title: Child's Play

This is a great band out of the Chicago burbs, if you haven't heard
them, check them out, tonsa good songs.

e--------------------|
B--------------------|
G-------7/8----------|
D--7/8--7/8----------|
A--7/8--5/6----------|
E--5/6---------------|

Do this a couple of times for the start of each verse in a clean tone
then hit the distortion and do some of this hitting the A# twice
and then a little variation on the rythym for the D#.

e--------------|
B--------------|
G---------8-8--|  they alternate the strum pattern of the
D-8-8-----8-8--|   second chord so you just have to listen
A-8-8-----6-6--|   and figure it out.
E-6-6----------|
      ^
     Pause here

They do a little pause after each verse and then the chorus comes in

e-------------------------------------------|
B--------------------------10-10-10---------|
G----------8-8-8-8---------10-10-10---------|
D--8-8-8-8-8-8-8-8-8-8-8-8-8--8--8----------|
A--8-8-8-8-6-6-6-6-8-8-8-8------------------|
E--6-6-6-6---------6-6-6-6------------------|

Then they go into this "Oh Momma, did you hear, they're gonna make
me a superstar part" and there is a little riff before it and during
it, and i got that part, but they switch to some chords that are just
about the same notes, but i can't figure those out, so any help would
be appreciated.

e-----6-----------------------|
B----------10--9--8-----------|
G---7---5---------------------|    just repeat this a couple times
D-----------------------------|
A-----------------------------|
E-----------------------------|

There it is, i hope this will start more people on tabbing out some
more LBC stuff, i also have Arizona Stand started, but i can't figure
out the clean high chords for the verse, once again, any help would be
nice.


Nick
Juxto@hotmail.com
Tap to rate this tab
 
# A B C D E F G H I J K L M N O P Q R S T U V W X Y Z