Song name
# A B C D E F G H I J K L M N O P Q R S T U V W X Y Z

Ludwig Van Beethoven - Ode To Joy tab

-------------------------------------------------------------------------------
			     Ode to Joy - Ludwig Van Beethoven
-------------------------------------------------------------------------------
Tabbed by: Tyler.
Email: t_y_l_e_r_guitar@hotmail.com

Tuning: Standard.

e|--2--3--5--5--3--2--0--------0--2--2--0--0--2--3--5------------------------|
B|--3--5--7--7--5--3-----3--3-----3--3--2--2--3--5--7------------------------|
G|--------------------2--------2---------------------------------------------|
D|--0--------------------4--4-----0-----------0------------------------------|
A|-----------0-----------5-----------0-----0---------------------------------|
E|---------------------------------------------------------------------------|

e|--5--3--2--0--------0--2--0--------0--2------------------------------------|
B|--7--5--3-----3--3-----3-----3--3--2--3--3---------------------------------|
G|-----------2--------2-----2------------------------------------------------|
D|--------------4--4-----0-----4--4--------0---------------------------------|
A|--0-----------5-----------0-----5--0--0------------------------------------|
E|---------------------------------------------------------------------------|

e|--0--2--3--2-----0--3--2--0-----0-----2--2--2--3--5------------------------|
B|--2--3--5--3--3--2--5--2--2--3--------3--3--3--5--7------------------------|
G|-----------------------------4--1--2---------------------------------------|
D|--------------0--------------------------0---------------------------------|
A|--0--------0-----0-----1-----2-----0---------------------------------------|
E|--------------------------2-----0------------------------------------------|

e|--5--3--2--0--------0--2--0--------5p3p2~~----0----------------------------|
B|--7--5--3-----3--3-----3-----3--3----------------3--3~---------------------|
G|-----------2--------2-----2-------------------2----------------------------|
D|--------------4--4-----0-----4--4----------------4--4~---------------------|
A|--0-----------5-----------0-----5-------------0-----5~---------------------|
E|---------------------------------------------------------------------------|




| /  slide up
| \  slide down
| h  hammer-on
| p  pull-off
| ~  vibrato
| +  harmonic
| x  Mute note
===============================================================================
Tap to rate this tab
# A B C D E F G H I J K L M N O P Q R S T U V W X Y Z