Song name
# A B C D E F G H I J K L M N O P Q R S T U V W X Y Z

Luis Alberto Spinetta - Seguir Viviendo Sin Tu Amor chords

Highlighted       Show chord diagrams
INTRODUCCIÓN:

||----9-10------------||----9-10-----------||
||--7------10-8-10----||--7------10-8-7----||
||--------------------||-------------------||
||--------------------||-------------------||
||--------------------||-------------------||
||--------------------||-------------------||

||----9-10------------||-------------------||
||--7------10-8-12----||--7-8-10-8-7-8h10--||
||--------------------||-------------------||
||--------------------||-------------------||
||--------------------||-------------------||
||--------------------||-------------------||

                      D         D2    D 
SI A tu corazón yo llego igual,
D         D2        Bm       B2    Bm
todo siempre se podrá elegir. 
Bm        B2            A/G     G  A/G
No me escribas la pared.
         G          Em7          A 
Sólo quiero estar entre tu piel.

                      D         D2    D
Y si acaso no brillara el sol,
          D2        Bm       B2    Bm
y quedara yo atrapado aquí,
          B2            A/G     G  A/G
no vería la razón
         G          Em7          A
de seguir viviendo sin tu amor.


F#
   Y hoy que enloquecido vuelvo
      Bm
buscando tu querer,
       Em7
no queda más que el viento,
        A/G                   A
no queda mas que el viento.


Y si acaso no brillara el sol
y quedara yo atrapado aquí
no vería la razón
de seguir viviendo sin tu amor. 

       (INTRODUCCIÓN)

F#
   Y hoy que enloquecido vuelvo
      Bm
buscando tu querer,
       Em7
no queda más que el viento,
        A/G                   A
no queda mas que el viento.

                      D         D2    D
Y si acaso no brillara el sol,
          D2        Bm       B2    Bm
y quedara yo atrapado aquí,
          B2            A/G     G  A/G
no vería la razón
         G          Em7          A
de seguir viviendo sin tu amor.
Tap to rate this tab
# A B C D E F G H I J K L M N O P Q R S T U V W X Y Z