Song name
# A B C D E F G H I J K L M N O P Q R S T U V W X Y Z

Luis Alberto Spinetta - El Anillo Del Capitan Beto tab

"EL ANILLO DEL CAPITÁN BETO"
SPINETTA/INVISIBLE
Tabbed by: Ale Pérez Astorga
anecsey@hotmail.com


VERSO
 "Ahí va el capitan Beto"      "por el espacio"
e|-4~-----4-4-4-----------------0-0~-------------------|
B|--6~----6-6-6-----------------2-2~-2/3-3-3/2~--------|
G|---6~---6-6-6-----------------2-2~-------------------|
D|----6~--6-6-6-----------------2-2~-------------------|
A|-----4~-4-4-4-----------------0-0~-------------------|
E|-----------------------------------------------------|
"con su nave de fibra hecha en Haedo"


PRE CHORUS
  "ayer colectivero" "hoy amo entre los amos"  "del aire"
e|---4~-4-4------4~-|--4~-4-4-------4~------|--4~---------|
B|---5~-5-5------2~-|--5~-5-5-------2~------|--5~---------|
G|---4~-4-4------2~-|--4~-4-4-------2~------|--4~---------|
D|---6~-6-6---------|--6~-6-6---------------|--0~---------|
A|-4-4~-4-4----4----|4-4~-4-4-----4---------|-------------|
E|------------2-----|------------2----------|-------------|


VERSO 2
Ya lleva quince años en su periplo 
su equipo es tan precario como su destino
PRE CHORUS 2
sin embargo un anillo extraño 
ahuyenta sus peligros en el cosmos. 
                

Escala de interludio (jazz) (no estoy seguro si es 100% correcta)
e|--------------------------|
B|--------------------------|
G|--------------------------|
D|--------------------------|
A|--6-7--6/4-----4/0--------|
E|-0---5-----7/5------------|

VERSO 3
Ahí va el Capitán Beto por el espacio 
la foto de Carlitos sobre el comando 
PRE CHORUS 3
y un banderín de River Plate 
y la triste estampita de un santo. 


ESTRIBILLO CHORUS
  ¿Dónde  está  el lugar al que todos llaman  cielo?
e|-----4~-|-----2~-|-----4~--|-----------------0~---|
B|-----2~-|----3~--|----5~---|-----------------0~---|
G|-----2~-|---2~---|---4-----|-----2-----4-----6~---|
D|---2----|--4-----|--6------|-----3-----5-----7~---|
A|--4-----|-2------|-4-------|----3-----5------7----|
E|-2------|--------|---------|---1-----3-------5----|

 Si nadie viene  hasta aquí  a cebarme unos amargos 
e|------------2~|-----4~---|-----------------0~----|
B|------------3~|----5~----|-----------------0~----|
G|-----------2~-|---4~-----|-----2----4------6~----|
D|---------4----|--6-------|-----3----5------7~----|
A|-------2------|-4--------|----3----5-------7-----|
E|--------------|----------|--1-----3--------5-----|

  como en  mi viejo  umbral. 
e|----2~|-----4~---|-6~--6--------|
B|----3~|-----5~---|-7~---7-7~----|
G|----2~|-----4~---|-6~----6------|
D|----4-|-----6----|-8------------|
A|----2-|-----4----|-6------------|
E|------|----------|--------------|

 ¿Por qué habré  venido hasta aquí?
e|----------4~---|----2~---|-------|
B|----------5~---|----3~---|-------|
G|----------4~---|----2~---|---2~--|
D|----------6----|----4~---|---2~--|
A|----------4----|----2----|---4~--|
E|---------------|---------|---2---|

  Si no puedo más de soledad?
e|------------2~|---4~-|----|
B|------------3~|---5~-|----|
G|------------2~|---4~-|-2~-|
D|------------4-|---6--|-2~-|
A|------------2-|---4--|-4~-|
E|--------------|------|-2--|

  ya no puedo más de soledad. 
e|------------2~|---4~-|----|
B|------------3~|---5~-|----|
G|------------2~|---4~-|-2~-|
D|------------4-|---6--|-2~-|
A|------------2-|---4--|-4~-|
E|--------------|------|-2--|


VERSO 4
Su anillo lo inmuniza de los peligros 
pero no lo protege de la tristeza 
PRE CHORUS 4
surcando la galaxia del hombre 
ahí va el Capitán Beto, el errante. 

ESTRIBILLO CHORUS 2
¿Dónde habrá una ciudad 
en la que alguien silbe un tango? 
¿Dónde están, dónde están 
los camiones de basura 
mi vieja y el Café? 
Si esto sigue así como así 
ni una triste sombra quedará 
ni una triste sombra quedará. 

VERSO 5
Ahí va el Capitán por el espacio 
regando los malvones de su cabina 
PRE CHORUS 5
sin brújula y sin radio 
jamás podrá volver a la tierra. 

INTERLUDIO JAZZ

VERSO 6
Tardaron muchos años hasta encontrarlo 
el anillo de Beto llevaba inscripto 

FIN
  un signo del alma
e|----4---|----4~~---------|
B|----5---|----5~~---------|
G|----4---|----4~~---------|
D|----6---|----0~~---------|
A|----4---|----------------|
E|--------|----------------|
Tap to rate this tab
 
# A B C D E F G H I J K L M N O P Q R S T U V W X Y Z