Song name
# A B C D E F G H I J K L M N O P Q R S T U V W X Y Z

Luke - Hasta Siempre tab

Luke
Hasta Siempre

Intro:
------------------------------------|
------------------------------------|
------------------------------------|
------------------------------------|
-----------3-2-2-2-2-2--------------|
-0-0-0-0-0-------------3------------|

------------------------------------|
------------------------------------|
------------------------------------|
------------------------------------|
-----------3-2-2-2-2-2--------------|
-0-0-0-0-0-------------3------------|

------------------------------------|
------------------------------------|
------------------------------------|
------------------------------------|
-----------3-2-2-2-2-2--------------|
-0-0-0-0-0-------------3------------|

___________________________________________


------------------------------------|
------------------------------------|
------------------------------------|
------------------------------------|
----------------------------3-------|
-0---0---0---0---0------------------|
entends-tu le chant des morts

------------------------------------|
------------------------------------|
------------------------------------|
------------------------------------|
-2---2---2---2---2------------------|
-------------------------3----------|
et ce pavé battu cent fois  le poing

------------------------------------|
------------------------------------|
------------------------------------|
------------------------------------|
----------------------------3-------|
-0---0---0---0---0------------------|
fermé jusqu'à s'en briser

------------------------------------|
------------------------------------|
------------------------------------|
------------------------------------|
-2---2---2---2---2------------------|
-------------------------3----------|
les doigts

------------------------------------|
------------------------------------|
------------------------------------|
------------------------------------|
--0----0----0----0----0----0--------|
------------------------------------|
tu sais quand la vie elle vous dévore


------------------------------------|
------------------------------------|
------------------------------------|
------------------------------------|
----------2---2---2---2---2---------|
--3----3----------------------------|
quand la vie elle vous dévore


--------------------------------------------------|
--------------------------------------------------|
--------------------------------------------------|
--------------------------------------------------|
---------------------------------3--2-2-2-2-2-----|
--3--------------------0-0-0-0-0--------------3---|
il n'y a plus que ça                            il n'y a plus que

------------------------------------|
------------------------------------|
------------------------------------|
------------------------------------|
-----------3-2-2-2-2-2--------------|
-0-0-0-0-0-------------3------------|
ça

Allez

Em, C, B, G        4x


entends-tu le cri dehors
et l'amour scandé cent fois
le chant des vaux-riens,des renégats
et le sang qui prolifére
qui donne son sein aux libertaires
Em
contre les rires et les renvois
B
contre les rires et les renvois

        C          B      Em
hasta siempre camarade
        C          B      Em
hasta siempre camarade
        C          B
hasta siempre camarade
              Em
ne m'oublie pas


------------------------|
--5-5-5-5-5-------------|
------------5-4---------|           Ne m'oublie pas
------------------------|
------------------------|
------------------------|


------------------------|
--5-5-5-5-5-------------|
------------5-4---------|           Ne m'oublie pas
------------------------|
------------------------|
------------------------|

------------------------|
------------------------|
------------------------|
----------0--2--0-------|
--2--2--2---------4-----|
------------------------|

------------------------|
--5-5-5-5-3-------------|
------------5-4-5-------|
------------------------|
------------------------|
------------------------|

------------------------------------|
------------------------------------|
------------------------------------|      Aha
------------------------------------|
-----------3-2-2-2-2-2--------------|
-0-0-0-0-0-------------3------------|


------------------------------------|
------------------------------------|
------------------------------------|
------------------------------------|
-----------3-2-2-2-2-2--------------|
-0-0-0-0-0-------------3------------|

contre l'horreur qui raisonne
sous les sourdines des candidats
crier de l'hymne jusqu'à s'en briser la voix
il ya ce cri qui prolifére
c'est du sourire sans riviéres
contre les rires et les renvois

hasta siempre camarade
hasta siempre camarade
ne m'oublie pas
Tap to rate this tab
# A B C D E F G H I J K L M N O P Q R S T U V W X Y Z