Song name
# A B C D E F G H I J K L M N O P Q R S T U V W X Y Z

Luna Sea - Shine tab

E----------------17----------16---------14----------------12--------|
B--17----15--14------14--12-----12--10-----10--12--9--10------9--7--|
G-------------------------------------------------------------------|
D-------------------------------------------------------------------|
A-------------------------------------------------------------------|
E-------------------------------------------------------------------|

E--------------------------/19--|
B--19--19--19--19--19--19-------|
G-------------------------------|
D-------------------------------|
A-------------------------------|
E-------------------------------|

E--17--16--16--17--19--16--17--19--16--17--19--16--17--19--21--|
B--------------------------------------------------------------|
G--------------------------------------------------------------|
D--------------------------------------------------------------|
A--------------------------------------------------------------|
E--------------------------------------------------------------|

E--------------21------------------------|
B--17--19--17------17--19--17--/15--/14--|
G----------------------------------------|
D----------------------------------------|
A----------------------------------------|
E----------------------------------------|
Tap to rate this tab
# A B C D E F G H I J K L M N O P Q R S T U V W X Y Z