Song name
# A B C D E F G H I J K L M N O P Q R S T U V W X Y Z

Lymphatic Phlegm - Pneumo-diffusion Dysfunctions For Anatomo-pathological Abnormalities Of The Diffusing Membranes tab

Lymphatic Phlegm
Show-off Cadavers - The Anatomy of Self Display
Pneumo-diffusion Dysfunctions For Anatomo-pathological
Abnormalities Of The Diffusing Membranes

Copyright (c)  Black Hole Production 2007
Version 1.0 - 2.11.08

Transcribed By: Yaniv Dekel
Email:          lickywebster@yahoo.com


.  - palm mute           /  - slide up to
\  - slide down to       ~  - vibrato
h  - hammer on           b  - Bend
p  - pull off            Suffixes for bend
t  - tap                 f  - full bend    h - half bend
ph - pinched harmonic    q  - quarter bend t - tap bend
*  - see comment         ^  - Hold bend    r release bend
x  - Stuccatto           ~  - vibrato bend
,  - slight palm mute    () - ghost note, sustained note
"  - tremolo note        <> - Trill

Tuning E A D G B E


Intro (Sustained from previous track)
|------------|
|------------|
|------------|
|------------|
|-2----------|
|-0----------|

Riff A x8
|-----------------------------------------------------------------|
|-----------------------------------------------------------------|
|-----------------------------------------------------------------|
|-----------------------------------------1---2-------------------|
|-------------2-----------2---3-------------------0-0-0-0-2-------|
|-0-0-0-0-5-------2-2-2-2---------3-3-3-3-------------------------|

Riff B x8                          ***
|---------------------------------||Played 5th time by the left channel|
|---------------------------------||Could be a studio mistake----------|
|---------------------------------||-----------------------------------|
|---------------------------------||-----------------------------------|
|-------------2p0---------0h2h3---||-------------2p0---------0h2h3-----|
|-0-0-0-0-5p0-----2-2-2-2---------||-0-0-0-0-3p0-----2-2-2-2-----------|

Riff A x4

Outro x1
|-------------------|
|-------------------|
|-------------------|
|-------------------|
|-2-------2-------2-|
|-0-----------3---0-|


END
Tap to rate this tab
# A B C D E F G H I J K L M N O P Q R S T U V W X Y Z