Song name
# A B C D E F G H I J K L M N O P Q R S T U V W X Y Z

Lynyrd Skynyrd - Floyd Acoustic tab

           Lynyrd Skynyrd
               "Floyd"

Tuning Half-Step Down  drop D

just the intro and chorus, working on the rest.


intro/verse
eb---------------------------------------------|
Bb---------------------------------------------|
Gb---------------------------------------------|
Db-5--5--0---0-3-0-3br-0-----------------------|
Ab-5--5--0---0-3-0-3br-0-----------------------|
D--5--5--0---0-3-0-3br-0-----------------------|

chorus
eb---------------------------------------------|
Bb---------------------------------------------|
Gb---------------------------------------------|
Db-6-6-x-5-5-x-0-3-0-3br-0---------------------|
Ab-6-6-x-5-5-x-0-3-0-3br-0---------------------|
D--6-6-x-5-5-x-0-3-0-3br-0---------------------|

b= Bend
r= Release
Tap to rate this tab
 
# A B C D E F G H I J K L M N O P Q R S T U V W X Y Z