Song name
# A B C D E F G H I J K L M N O P Q R S T U V W X Y Z

Machine Head - Nausea tab

Song: Nausea
Artist: Machine Head
Album: Supercharger

Tuning: Drop B (B F# B E G# C#)


Intro
C#-----------------------------------|
G#-----------------------------------|
E------------------------------------|
B---3-2--2--2--1---------------------| x4
F#--3-2--2--2--1---------------------|
B---3-2--2--2--1---------------------|


Pre-verse
|------------------------------------|
|------------------------------------|
|------------------------------------|
|------------------------------------| x4
|------------------------------------|
|--3-2-----2-1-----------------------|


Verse pt 1
|------------------------------------|
|------------------------------------|
|------------------------------------|
|------------------------------------| x8
|------------------------------------|
|--3-2-----2-1-----------------------|

Verse pt 2
|------------------------------------|
|------------------------------------|
|--10\9--9-9-9-9\8--8--8-8/12-12-12--|
|--x-----x-x-x-x----x--x-x----x--x---| x4
|--8-\7--7-7-7-7\6--6--6-6/10-10-10--|
|------------------------------------|


Pre-chorus
 guitar 1
|------------------------------------|
|------------------------------------|
|------------------------------------|
|--3-2--2--2--1----------------------|
|--3-2--2--2--1----------------------|
|--3-2--2--2--1----------------------|\
|                                      \
|guitar 2         (very fast)           x3
|------------------------------------| /
|------------------------------------|/
|------------------------------------|
|------------------------------------|
|-----------------5--7\5---8\7--7\5--|
|------------------------------------|

 guitar 1
|------------------------------------|
|------------------------------------|
|------------------------------------|
|--3-2--2--2--1-----x-x----x-x---x---|
|--3-2--2--2--1-----x-x----x-x---x---|
|--3-2--2--2--1-----x-x----x-x---x---|\
|                                      \
|guitar 2                               fourth time
|------------------------------------| /
|------------------------------------|/
|------------------------------------|
|-------------------x-x----x-x---x---|
|-------------------x-x----x-x---x---|
|-------------------x-x----x-x---x---|

 both guitars
|------------------------------------|
|------------------------------------|
|-----------------7--9\7--10\9--9\7--|
|--3-2--2--2--1---x--x----x-----x----| x3
|--3-2--2--2--1---5--7\5--8-\7--7\5--|
|--3-2--2--2--1----------------------|

|------------------------------------|
|------------------------------------|
|------------------------------------|
|--3-2--2--2--1----------------------| fourth time
|--3-2--2--2--1------\---/-----------|
|--3-2--2--2--1------\---/-----------|


Chorus
|------------------------------------|
|------------------------------------|
|------4---7---3---2-----------------|
|--2---4---7---3---2---5-------------| x4
|--2---2---5---1---0---5-------------|
|--2-------------------5-------------|


Pre-verse

Verse (pt 1, pt 2)

Pre-chorus

Chorus


Bridge
|-------------------------------------------------------------|
|-------------------------------------------------------------|
|---------------------------------------------------x-8--x-5--|
|---------------------------------------------------x-8--x-5--|
|---------------------------------------------------x-6--x-3--|
|--0-0-0-0-0-1-1-1-1-0-0-0-0-3-3-3-3/5-5-5-5-5-5-5------------|


|----------------------------------------------------------------------
|----------------------------------------------------------------------
|--5/7--7-7------------------------------------------x-8-8-8-x-5-5-5---
|--5/7--7-7--0-1-1-1-1-0-0-0-0-3-3-3-3/5-5-5-5-5-5-5-x-8-8-8-x-5-5-5---
|--3/5--5-5--0-1-1-1-1-0-0-0-0-3-3-3-3/5-5-5-5-5-5-5-x-6-6-6-x-3-3-3---\
|------------0-1-1-1-1-0-0-0-0-3-3-3-3/5-5-5-5-5-5-5------------------- \
                                                                         x3
----------------------------------------------------------------------| /
----------------------------------------------------------------------|/
---5/7--7-7-----------------------------------------------------------|
---5/7--7-7--0-1-1-1-1-0-0-0-0-3-3-3-3/5-5-5-5-5-5-5-5h6-6-6-6\3-3-3--|
---3/5--5-5--0-1-1-1-1-0-0-0-0-3-3-3-3/5-5-5-5-5-5-5-5h6-6-6-6\3-3-3--|
-------------0-1-1-1-1-0-0-0-0-3-3-3-3/5-5-5-5-5-5-5-5h6-6-6-6\3-3-3--|

|----------------------------------------------------------------------
|----------------------------------------------------------------------
|--5/7--7-7------------------------------------------x-8-8-8-x-5-5-5---
|--5/7--7-7--0-1-1-1-1-0-0-0-0-3-3-3-3/5-5-5-5-5-5-5-x-8-8-8-x-5-5-5---
|--3/5--5-5--0-1-1-1-1-0-0-0-0-3-3-3-3/5-5-5-5-5-5-5-x-6-6-6-x-3-3-3---
|------------0-1-1-1-1-0-0-0-0-3-3-3-3/5-5-5-5-5-5-5-------------------

----------------------------------------------------------------------|
----------------------------------------------------------------------|
---5/7--7-7-------------------------------------------x-8--x-5--x-8---|
---5/7--7-7--0-1-1-1-1-0-0-0-0-3-3-3-3/5-5-5-5-5-5-5--x-8--x-5--x-8---|
---3/5--5-5--0-1-1-1-1-0-0-0-0-3-3-3-3/5-5-5-5-5-5-5--x-6--x-3--x-6---|
-------------0-1-1-1-1-0-0-0-0-3-3-3-3/5-5-5-5-5-5-5------------------|


Verse pt 2


Pre-chorus


Chorus x2


End
|------------------------------------|
|------------------------------------|
|------------------------------------|
|--3-2-----2-1-----------------------|
|--3-2-----2-1-----------------------|
|--3-2-----2-1-----------------------|


Something like THAT! =]
Enjoy!
Tap to rate this tab
# A B C D E F G H I J K L M N O P Q R S T U V W X Y Z