Mae - Falling Into You tab

This is my first real tab, so please be nice. . . 
It's not 100% to the song, but I tabbed it as close as I could 
to play for church, and it sounds beautiful nonetheless.
Enjoy!

/ = slide up
\ = slide down
h = hammer on
p = pull off

Capo on 4th Fret
Tab is in relation to capo.

Intro [Repeat first part once]                                 Pickup
e|------------------------------------------------------------|------|
B|--7--------7\5--5--------5\3--3--------3\2--2--------2\-----|------|
G|---------------------------------------------------------2--|--2/--|
D|-----0-------------0-------------0-------------0------------|------|
A|--5-----5--5\4--4-----4--4\2--2-----2--2p0--0-----0--0---0--|------|
E|------------------------------------------------------------|------|

Second Part
e|------------------------------------------------------------|
B|------------------------------------------------------------|
G|-----------2-----0-----3-----------3/5-----------5\2--2-----|
D|-----0--------------0--------0-------------0----------------|
A|--0-----0--0--0-----------0-----0-------0-----0-------------|
E|------------------------------------------------------------|

Verse I [Repeat first part once]
e|-----------------------------------------------------------------------|
B|-----------------------------------------------------------------------|
G|--------------------------2-----2--4/6-----6--6/7--7\6----2--2---------|
D|--0h2-----2--2h4-----4--4--------------------------------------4--2p0--|
A|-------0----------0----------0----------0------------------------------|
E|-----------------------------------------------------------------------|

Second Part
e|-----------------------------------------------------------------------|
B|--------------------------------5----5p3--3----------------------------|
G|--------------------------2------------------6h7p6p4--2---2--2---------|
D|-------0-------2--0--2h4-----4---------------------------------4--2p0--|
A|--0h2-----2h4----------------------------------------------------------|
E|-----------------------------------------------------------------------|

Verse II [Repeat first part once]
e|-----------------------------------------------------------------------|
B|-----------------------------------------------------------------------|
G|--------------------------2-----2--4/6-----6--6/7--7\6----2--2---------|
D|--0h2-----2--2h4-----4--4--------------------------------------4--2p0--|
A|-------0----------0----------0----------0------------------------------|
E|-----------------------------------------------------------------------|

Second Part
e|-----------------------------------------------------------------------|
B|--------------------------------5----5p3--3----------------------------|
G|--------------------------2------------------6h7p6p4--2---2--2---------|
D|-------0-------2--0--2h4-----4---------------------------------4--2p0--|
A|--0h2-----2h4----------------------------------------------------------|
E|-----------------------------------------------------------------------|

Verse III
e|-----------------------------------------------------------------------|
B|-----------------------------------------------------------------------|
G|--------------------------2-----2--4/6-----6--6/7--7\6----2--2---------|
D|--0h2-----2--2h4-----4--4--------------------------------------4--2p0--|
A|-------0----------0----------0----------0------------------------------|
E|-----------------------------------------------------------------------|

e|--------------------------------------------------------------|
B|--------------------------------------------------------------|
G|------------------2-----------------------2---2--4------------|
D|-------0h4-----0-----4-----0--4----4p0--4-----------2---2--0--|
A|--0h2-------4-----------0-------------------------------------|
E|--------------------------------------------------------------|

e|-------------------------------------------------------------------------|
B|-------------------------------------------------------------------------|
G|------------------2-----------------------2--2--4-------------2----------|
D|-------0h4-----0-----4-----0--4----4p0--4---------------0--------0-------|
A|--0h2-------4-----------0--------------------------0h4-----4--------4p0--|
E|-------------------------------------------------------------------------|

e|--------------------------------------------------------------|
B|--------------------------------------------------------------|
G|------------------2-----------------------2---2--4------------|
D|-------0h4-----0-----4-----0--4----4p0--4-----------2---2--0--|
A|--0h2-------4-----------0-------------------------------------|
E|--------------------------------------------------------------|

e|------------------------------------------------------------0-------2--|
B|----------------------------------------2---------3--------------------|
G|-------0----------2-----------4-----------2------------0h2-----2h4-----|
D|----------0----------0-----0-------0h2-------2h4-----------------------|
A|--0h2--------2h4--------4----------------------------------------------|
E|-----------------------------------------------------------------------|

Bridge
    D       Dsus    D                                 D                    Pickup
e|--2h3-----3p2-----2-----2---------------------------2-----2-----2-----2--|-----|
B|--3----3--3-------3-----3---------------------------3-----3-----3-----3--|-----|
G|--2-------2-------2-----2-------2----------0--------2-----2-----2-----2--|-----|
D|--0-------0----0--0--0--0----------0----------4--0--0--0--0--0--0--0--0--|--0--|
A|---------------------------2/4--------4/5--------------------------------|-----|
E|-------------------------------------------------------------------------|-----|

*Come back to verse II
Verse II [Repeat first part once]
e|-----------------------------------------------------------------------|
B|-----------------------------------------------------------------------|
G|--------------------------2-----2--4/6-----6--6/7--7\6----2--2---------|
D|--0h2-----2--2h4-----4--4--------------------------------------4--2p0--|
A|-------0----------0----------0----------0------------------------------|
E|-----------------------------------------------------------------------|

Second Part - *has a minor variation
e|-----------------------------------------------------------------------|
B|--------------------------------5----5p3--3----------------------------|
G|--------------------------2------------------6h7p6p4--2---2--2/4-------|
D|-------0-------2--0--2h4-----4------------------------------------2p0--|
A|--0h2-----2h4----------------------------------------------------------|
E|-----------------------------------------------------------------------|


Verse III [Final verse]
e|-----------------------------------------------------------------------|
B|-----------------------------------------------------------------------|
G|--------------------------2-----2--4/6-----6--6/7--7\6----2--2---------|
D|--0h2-----2--2h4-----4--4--------------------------------------4--2p0--|
A|-------0----------0----------0----------0------------------------------|
E|-----------------------------------------------------------------------|

e|--------------------------------------------------------------|
B|--------------------------------------------------------------|
G|------------------2-----------------------2---2--4------------|
D|-------0h4-----0-----4-----0--4----4p0--4-----------2---2--0--|
A|--0h2-------4-----------0-------------------------------------|
E|--------------------------------------------------------------|

e|-------------------------------------------------------------------------|
B|-------------------------------------------------------------------------|
G|------------------2-----------------------2--2--4-------------2----------|
D|-------0h4-----0-----4-----0--4----4p0--4---------------0--------0-------|
A|--0h2-------4-----------0--------------------------0h4-----4--------4p0--|
E|-------------------------------------------------------------------------|

e|--------------------------------------------------------------|
B|--------------------------------------------------------------|
G|------------------2-----------------------2---2--4------------|
D|-------0h4-----0-----4-----0--4----4p0--4-----------2---2--0--|
A|--0h2-------4-----------0-------------------------------------|
E|--------------------------------------------------------------|

e|------------------------------------------------------------0-------2--|
B|----------------------------------------2---------3--------------------|
G|-------0----------2-----------4-----------2------------0h2-----2h4-----|
D|----------0----------0-----0-------0h2-------2h4-----------------------|
A|--0h2--------2h4--------4----------------------------------------------|
E|-----------------------------------------------------------------------|

Ending
e|--2h3-----3p2-----2-----2---------------------------2-----2-----2--|
B|--3----3--3-------3-----3---------------------------3-----3-----3--|
G|--2-------2-------2-----2-------2----------0--------2-----2-----2--|
D|--0-------0----0--0--0--0----------0----------4--0--0--0--0--0--0--|
A|---------------------------2/4--------4/5--------------------------|
E|-------------------------------------------------------------------|

E|-----2h3-----3p2-----2-----2---------------------------2--|
B|--3--3----3--3-------3-----3---------------------------3--|
G|-----2-------2-------2-----2-----------2----------0----2--|
D|-----0-------0----0--0--0--0--------------0------------0--|
A|--------------------------------0h2/4--------4\2----------|
E|----------------------------------------------------------|
Tap to rate this tab
 
# A B C D E F G H I J K L M N O P Q R S T U V W X Y Z