Song name
# A B C D E F G H I J K L M N O P Q R S T U V W X Y Z

Mae - Falling Into You tab

FALLING INTO YOU
by MAE

Tuning : Tune Down 1/2 Step (Eb Ab Db Gb Bb Eb)

(0:17) PRE-VERSE

  (/ = slide)
|------------------------------------------|
|--12-----12/10-----10/8-----8/7-----7/3~--|
|-----0---------0--------0-------0---------|
|------------------------------------------|
|--10---10----9---9----7---7---5---5---3~--|
|------------------------------------------|
(0:27)                                     'RIFF'
|-------------------------------------------------------------|
|--12-----12/10-----10/8-----8/7-----7/3------3---1--2/3--/6--|
|-----0---------0--------0-------0--------0-----0--0----------|
|-------------------------------------------------------------|
|--10---10----9---9----7---7---5---5---3---3--3---3--3----/5--|
|-------------------------------------------------------------|


(0:41) VERSE

   (h = hammer ; p = pull-off)
|--------------------------0h2-----2h3-----3p2----------------------|
|------------------0h3---3-------3-------3-------3-------3-3p0------| x2
|--0h2---2-2h4---4---------------------------------------------2p0--|
|----------------------------------------------------------0--------|
|----------------------------------3---3---3---3---3---3------------|
|--3---3---3---3---3---3---3---3------------------------------------|


(1:00) POST-VERSE

|--------------------------5-----5p3-----2h3p2-----------------|
|----------------------3-------3---------------3----3-3p0------|
|------0---------0-2/4---4------0----------------2--------2p0--|
|--0h2---2/7-------------------------------------0-------------|
|--------------------------------3---3---3---------------------|
|--0---0---0---0---0-------------------------------------------|


(1:09) repeat VERSE twice
(1:26) repeat POST-VERSE then VERSE again once


(1:45)
|---------------------------------------------0--------------|
|--------0-----2-------0----0---0h3-----3--------------------|
|------0-----0---0---0--------0-------0---0-----2----2--0----|
|----2------------------------------------------0----0-------|
|-------------------------------3---3-------3----------------|
|--0-------2-------3-----------------------------------------|

 ------------------------------------------------------------|
 --------0-----2-------0----0---0h3-----3------------3-------|
 ------0-----0---0---0--------0-------0----0-----0-----0-----|
 ----2-----------------------------------------4---4-----4-0-|
 -------------------------------3---3--------5---------------|
 --0-------2-------3-----------------------------------------|

|---------------------------------------------0--------------|
|--------0-----2-------0----0---0h3-----3--------------------|
|------0-----0---0---0--------0-------0---0-----2----2--0----|
|----2------------------------------------------0----0-------|
|-------------------------------3---3-------3----------------|
|--0-------2-------3-----------------------------------------|


(2:12)
|---------------------------------------------------------------------|
|-----1-------3-------5----5----5-----5-----7-------8-----8-----8-----|
|-------0-------0---------------0-------------0-----------0-----------|
|-0h2-----2/4-----4/5--------------5----5/7-----7/9----9--------------|
|------------------------3----3----3-------------------7-----7----7---|
|---------------------------------------------------------------------|

 ----------------------------------|
 ------10-------12------12-----12--|
 ----------------------------------|
 -9/10----10/12--------------------|
 -------------------10------10-----|
 ----------------------------------|


(2:29)
 --------------------------------------------------------------|
 -0-1p0-1p0------0~-------0------3-------1--------0-------0~---|
 -0-0---0--------0~-------0--------0-------0------0-------0~---|
 -0-2---2--------0~-------0--2/4-----4/2----------0-------0~---|
 -x-x---x--------x~-------x-----------------------x-------x~---|
 -3-3---3----3---3~---3---3-------------------3---3---3---3~---|


*the remainder of the song is played almost the same, only in a different arrangement. 
Also, there are few variations like in (3:06-3:08) and in the outro.


Tabbed by : cy
Tap to rate this tab
 
# A B C D E F G H I J K L M N O P Q R S T U V W X Y Z