Song name
# A B C D E F G H I J K L M N O P Q R S T U V W X Y Z

Malmsteen Yngwie - Bite The Bullet tab

Here's the lead to "Bite the Bullet" the way I play
it.
-Marty
-------------------------------------------------|
---------/----------------------/----------------|
-5-5-5-5-7-7-7-7-10-10-10-10-12-12-12-12---------|
-5-5-5-5-7-7-7-7-10-10-10-10-12-12-12-12---------|
-------------------------------------------------|
-------------------------------------------------|

----------B-^------------------------------------|
-13-15-15(17)15-13------------------B-^----------|
----------------------14~~~~12-14-14(16)14-------|
-------------------------------------------------|
-------------------------------------------------|
-------------------------------------------------|

-------------------------------------------------|
---------------------p---------------------------|
12------------12-14-12------------------4/5-5-5--|
---14~~~~15-----------15\14-15\14-------4/5-5-5--|
----------------------------------------2/3-3-3--|
-------------------------------------------------|

--------------------|
--------------------|
-4/5-5-5-4/5-5 -5---|
-4/5-5-5-4/5-5-5----|
-2/3-3-3-2/3-3-3----|
--------------------| .
any questions email me...samnbloods@yahoo.com
Tap to rate this tab
# A B C D E F G H I J K L M N O P Q R S T U V W X Y Z