Song name
# A B C D E F G H I J K L M N O P Q R S T U V W X Y Z

Malo - Nena tab

Artist: Malo
Song: Nena
Album: Malo
Written by: Arcelio Garcia, Abel Zarate, Pablo Tellez, & Jorge Santana

Chords:
   F7
|---8---|
|---10--|
|---9---|
|---10--|
|---8---|
|-------|

   E7
|---7---|
|---8---|
|---7---|
|---9---|
|---7---|
|-------|

(0:13)
|---------------------------------|
|---------------------------------|
|---------------------------------| 5x's
|--------5~-----------5-----5-----|
|-----7-----7------7-----7-----7--|
|--5----------5-5-----------------|

(0:29)
|--8--8--8--------7-7-7-----------|
|--10-10-10-------8-8-8-----------|
|--9--9--9--------7-7-7-----------| 10x's
|--10-10-10-------9-9-9-----------|
|--8--8--8--------7-7-7-----------|
|---------------------------------|


This is my first Tab. Thank You.
Tap to rate this tab
 
# A B C D E F G H I J K L M N O P Q R S T U V W X Y Z